Who - Substitute Chords & Tabs

 

Substitute Chords & Tabs

Who Chords & Tabs

Version: 2 Type: Bass Tab 0 ratings
1 star 2 stars 3 stars 4 stars 5 stars
comments

Substitute Bass Tab

[intro]
|--|--|--|------|-------------|----------------|-------------|----------------|
|--|--|--|------|-------------|----------------|-------------|----------------|
|--|--|--|-----5|5----5-5---5-|5-----5-5-----5-|5----5-5---5-|5-----5-5-----5-|
|--|--|--|--5-7-|---7-----7---|--5-7-----5-7---|---7-----7---|--5-7-----5-7---|

[verse pattern]
    You think we...
||--------------|------------------|-------------|----------------||
||--------------|------------0-----|-------------|----------------||
||5----5-5------|--------0-2---2-0-|5---5-5----5-|5-----5-5-----5-||
||---7------7-5-|3--3-3------------|---7-----7---|--5-7-----5-7---||

 substitute for another...
||------------------|----------------||
||---2------------0-|----2---------0-||
||------------0h2---|----------0h2---||
||0----3^-----------|0-----3^--------||

 yeah... (pre-chorus)
|----------------|----------------|
|7-7-7-7-7-7-7-7-|7-7-7-7-7-7-7-7-|
|----------------|----------------|
|----------------|----------------|

[chorus]                                               [2/4]          [4/4]
  Substitute...                        fine-lookin'...  made out of sack
||----------------7-|---7---7-7----||----------------7-|--7-----------|---------|
||------------------|--------------||------------------|--------------|---------|
||5-5-5-5-5-5-5-5---|----------5-5-||5-5-5-5-5-5-5-5---|-----------5--|5--------|
||------------------|--------------||------------------|--------------|---------|
[ Tab from: http://www.guitartabs.cc/tabs/w/who/substitute_btab_ver_2.html ]
[solo]
||------------------|----5---4---5-4-|----------------|-----------------||
||----5-----4---5-4-|5-5---5---5-----|----5---4---5-4-|----5---4---5-4--||
||5-5---5-5---5-----|----------------|5-5---5---5-----|5-5---5---5------||
||------------------|----------------|----------------|-----------------||

  substitute for another...
||------------------|----------------||
||---2------------0-|----2---------0-||
||------------0h2---|----------0h2---||
||0----3^-----------|0-----3^--------||

 yeah... (pre-chorus)
|----------------|----------------|
|7-7-7-7-7-7-7-7-|7-7-7-7-7-7-7-7-|
|----------------|----------------|
|----------------|----------------|

[repeat intro]                                  [2/4]  [4/4]    [to verse...]
|--|--|--|--|-----------|-----------|-----------|------|--------|-----------|
|--|--|--|--|---7------5|---5-------|---7------5|---5--|--------|-----------|
|--|--|--|--|5-----7----|------5-5--|5-----7----|-----5|5-------|----------5|
|--|--|--|--|-----------|-----------|-----------|------|--------|------5-7--|

[final chorus]
 Substitute...
|---7--7----|--7--7-7---7-|---7--7---|--7--7-7-5---|---7--7---|--7--7--7--|
|-----------|-------------|----------|-----------7|----------|-----------|
|5---------5|-------------|5--------5|-------------|5--------5|-----------|
|-----------|-------------|----------|-------------|----------|-----------|

 See right through....
|---7--7----|--7--7-7---7-|---7--7---|--7--7-7-5---|---7--7---|--7--7--7--|
|-----------|-------------|----------|-----------7|----------|-----------|
|5---------5|-------------|5--------5|-------------|5--------5|-----------|
|-----------|-------------|----------|-------------|----------|-----------|

[2/4]       [4/4]
 made out of sack
|--7--------|---------------|
|-----------|---------------|
|---------5-|5--------------|
|-----------|---------------|
Comments