Who - Sparks Chords & Tabs

 

Sparks Chords & Tabs

Who Chords & Tabs

Version: 1 Type: Bass Tab 0 ratings
1 star 2 stars 3 stars 4 stars 5 stars
comments

Sparks Bass Tab

The Who - AmazingJourney-Sparks(live at leeds)
Part: Sparks
By: TomPenny

(INTRO)
Part 1
|-------------------------------|
|-------------------------------|
|--7--------7--7--------5-7-----|
|-0--0-0-0---0--0-0-0-----------|

Part 2
|------------------------------|
|---------------------------5--|
|--7--------7---7-----5-7------|
|-0--0-0-0---0---5-7-----------|


(SOLO)
Part 1
|------------------12--------------------12-14-16-14-12---------
|------------12-14----14-------12-14--14----------------14------(continues)
|------12-14-------------12-14-----------------------------12-14- ->
|-12-12---------------------------------------------------------
->
------12--16-14-12-14-12---12----------------------------|
12-14--------------------14---14-12-14-12----12----------|
------------------------------------------14----14-12----|
------------------------------------------------------12-|
[ Tab from: http://www.guitartabs.cc/tabs/w/who/sparks_btab.html ]
Part 2
|------------12--16-14-12-14-12----12-14--------12-------------
|------12-14--------------------14--------12-14-----12-14----(continues)
|-12-14--------------------------------------------------12-14 ->
|-------------------------------------------------------------
->
----------------12-----------------12-14-16-14-12--------------|
----------12-14----14--------12-14---------------14-12---------|
----12-14--------------12-14---------------------------14-12---|
-12----------------------------------------------------------7-|

|--------------------------|
|--------------------------|
|-7---7--5----5---5-5------|
|---7-------7----5---------|


|-------------------------------------------------------------------|
|-------------------------------------------------------------------|
|-7-5--7-5---------7-5--7-5------------5-3--5-3----------2----------|
|-----------8-7-5-------------8-7-5-3-------------7-5-3-5-----------|


|--------------------------------7-----7----7---|
|-----------------------------------------------|
|-2(keep it hiting)---5(again)------------------|
|-----------------------------------------------|

END:
|------------------|
|------------------|
|--5---5----5------|
|----5---5----5----|
Comments