Who - See Me Feel Me Chords & Tabs

 

See Me Feel Me Chords & Tabs

Who Chords & Tabs

Version: 1 Type: Tab 0 ratings
1 star 2 stars 3 stars 4 stars 5 stars
comments

See Me Feel Me Tab

   
-------------------------------------------------------------------------------
		  See Me, Feel Me [live @ Woodstock] - The Who
-------------------------------------------------------------------------------
Tabbed by:GibsonSG99
Email:Specailized_p2@hotmail.com
I don't know how different the live version is from the regular one but here it is.

Tuning: normal
  
  Intro

e|2---4---2---4------------------------------------------------------------|
B|3---5---3---5------------------------------------------------------------|
G|2---4---2---4------------------------------------------------------------|
D|0-------0----------------------------------------------------------------|
A|-------------------------------------------------------------------------|
E|-------------------------------------------------------------------------|
  
e|3---3---1---1----1---1---3---3---3---------------------------------------|
B|3---3---1---1----1---1---3---3---3---------------------------------------|
G|3---3---3---2----3---2---0---0---0------------------(Repeat)-------------|
D|1---1---3---3----3---3---0---0---0---------------------------------------|
A|-------------------------2---2---2---------------------------------------|
E|-------------------------3---3---3---------------------------------------|
  See me, Feel Me, Touch me, Heal Me
[ Tab from: http://www.guitartabs.cc/tabs/w/who/see_me_feel_me_tab.html ]
e|----------------------------------------5-5-5-5-------5------------------|
B|----------------------------------------5-5-5-5-------5------------------|
G|------------------------------------4-4-4-4-4-4-4-4-4-4------------------|
D|2-------2-------2-------2-----------4-4-4-4-4-4-4-4-4-4------------------|
A|2-2-----2-2-----2-2-----2-2---------2-2-2-2-2-2-2-2-2-2------------------|
E|0-0-0-0-0-0-0-0-0-0-0-0-0-0-0-0-2-4--------------------------------------|
  Heal Me....
e|---------------------------------|
B|---------------------------------|
G|2-2-----4-4-----5-5-5-5----------|
D|2-2-----4-4-----5-5-5-5----------|
A|0-0-----2-2-----3-3-3-3----------|
E|---------------------------------|
  Listening to you, I get the music

e|---------------------------------|
B|---------------------------------|
G|2-2-----4-4-----1-1-1-1----------|
D|2-2-----4-4-----2-2-2-2----------|
A|0-0-----2-2-----2-2-2-2----------|
E|----------------0-0-0-0----------|
  Gazing at you, I get the heat

e|---------------------------------|
B|---------------------------------|
G|2-2-----4-4-----5-5-5-5----------|
D|2-2-----4-4-----5-5-5-5----------|
A|0-0-----2-2-----3-3-3-3----------|
E|---------------------------------|
  Following you, I climb the mountain


e|3-3-----3-3-----5-5-5-5-5-5-5-5----------------|
B|3-3-----2-2-----5-5-5-5-5-5-5-5----------------|
G|0-0-----3-3-----4-4-4-4-4-4-4-4-4-4-4-4-4-4-4-4|
D|0-0-----0-0-----4-4-4-4-4-4-4-4-4-4-4-4-4-4-4-4|
A|2-2-------------2-2-2-2-2-2-2-2-2-2-2-2-2-2-2-2|
E|3-3--------------------------------------------|
  I get excitement at your feet

| /  slide up
| \  slide down
| h  hammer-on
| p  pull-off
| ~  vibrato
| +  harmonic
| x  Mute note
===============================================================================
Comments