Who - My Wife Chords & Tabs

 

My Wife Chords & Tabs

Who Chords & Tabs

Version: 1 Type: Bass Tab 0 ratings
1 star 2 stars 3 stars 4 stars 5 stars
comments

My Wife Bass Tab

   
----------------------------------------------------------------------------
			     MY WIFE - THE WHO
----------------------------------------------------------------------------

Tabbed By : Jcbass319
e-mail: fake123@fak.net

Tuning: standard
 Intro
G|-------|
D|-------|
A|-------| reapeat until lyrics
E|-7-7-5-|

 Verse one
  My Life's in jeopardy... Murdered in.. I'm gonna be
G|--------------------------------------------------|
D|-------------------------5-5-3-5-5----------------|
A|-7-7-7-7----3-3-1-3---------------------7-7-5-7-7-|...
E|--------------------------------------------------|

I ain't been.. now my wife is comin' after me
G|---------------------------------------------------|
D|---------------------------------------------------|
A|--5-5-3-5-5-3-7-7-5-7-7----------------------------|
E|----------------------------------7-7-5-7-7-5-7-7--|..

 Verse Two
Give me police... Gonna buy... number one
G|---------------------------------------|
D|----------------5-5-3-5-5--------------|
A|-4-4-2-4-4------------------7-7-5-7-7--|..
E|---------------------------------------|
[ Tab from: http://www.guitartabs.cc/tabs/w/who/my_wife_btab.html ]
Give me a body..... Judo expert.. machine gun.
G|---------------------------------------------|
D|------------------5-5-3-5-5-----4-4-2-4-4----|..
A|-5-5-3-5-5-3-5-5-----------------------------|
E|---------------------------------------------|

Repeat Intro
Repeat Verse One
Repeat Verse Two

All I did was have a bit too much to drink
G|----------------------|
D|------------4-4-2-4-4-|...
A|-7-7-5-7-7------------|
E|----------------------|

And I picked the wrong precinct
G|------------------------|
D|------------------------|
A|--------------4-4-2-4-4-|...
E|-7-7-5-7-7--------------|

Got picked..... now I ain't.. think.
G|-----------------------------------------|
D|--------------4-4-2-4-4------------------|
A|--7-7-5-7-7------------------------------|
E|----------------------------7-7-5-7-7----|..

Repeat Intro
Repeate 2nd Verse

And I'm oh, so tired of running
Gonna lay down on the floor
I gotta rest sometime
So I can get to run some more, yeah!

Repeat Intro until the end

she comin'!!!!!!


| /  slide up
| \  slide down
| h  hammer-on
| p  pull-off
| ~  vibrato
| +  harmonic
| x  Mute note
============================================================================
Comments