Who - My Generation Chords & Tabs

 

My Generation Chords & Tabs

Who Chords & Tabs

Version: 5 Type: Bass Tab 0 ratings
1 star 2 stars 3 stars 4 stars 5 stars
comments

My Generation Bass Tab

4/4 time signature

.---.  = repeat
.---.

{   3   }= triplet (3 three 8ths in the time of two)

1. = dotted note

_ = tied note


G|-----------|------------|-------------------|-------------|
D|.----------|-----------.|-------------------|-------------|
A|.----------|-----------.|-------------------|-------------|
E|-3--3--3--3|-1--1--1--1-|1-2-3-3-3-1-2-3-3-3|1-1-1-1-1-3-3|
   1  2  3  4  1  2  3  4 {  3  }    { 3  }    1 + 2 + 3 + 4 
                             1   2 +   3   4 +



G|----------|-----------|-------------------|-------------|
D|----------|-----------|-------------------|-------------|x4
A|----------|-----------|-------------------|-------------| 
E|3--3--3--3|1--1-1-1--1|1-2-3-3-3-1-2-3-3-3|1-1-1-1-1-3-3|
  1  2  3  4 1  2 + 3  4{  3  }    { 3  }    1 + 2 + 3 + 4 
                           1   2 +   3   4 +

G|-------------|---------------|-------|-------|
D|-------------|---------------|-------|-------|
A|-------------|---------------|--rest-|--rest-|
E|3--3--3-3-3-3|1-1-1-1-1-1-1-1|3------|-------|
  1  2  3 + 4 + 1 + 2 + 3 + 4 + 1 2 3 4 1 2 3 4

G|----------|----------|-------|-------|
D|----------|----------|-------|-------|
A|----------|----------|--rest-|--rest-| x2
E|3--3--3--3|1--1--1--1|3------|-------|
  1  2  3  4 1  2  3  4 1 2 3 4 1 2 3 4

G|----------|----------|-------------|---------------|
D|----------|----------|-------------|---------------|
A|----------|----------|-------------|---------------|
E|3--3--3--3|1--1--1--1|3--3--3-3-3-3|1-1-1-1-1-1-1-1|
  1  2  3  4 1  2  3  4 1  2  3 + 4 + 1 + 2 + 3 + 4 + 
 

G|-------------|---------------|
D|-------------|---------------|
A|-------------|---------------|
E|3--3--3-3-3-3|1-1-1-1-1-1-1-1|
  1  2  3 + 4 + 1 + 2 + 3 + 4 + 

BASS SOLO

G|----------------|--------------|----------|----------|
D|--------0-------|--------------|----------|----------|
A|-----3----3--1--|1-------------|----------|----------|
E|3--3-----------1|---3-1_1--1--3|3--3--3--3|1--1--1--1|
  1. + 2. + 3. + 4   {   3  }
                   1     2   3  4 1  2  3  4 1  2  3  4


G|-------------|---------------|----------------|--------------|
D|-------------|---------------|--------0-------|--------------|
A|-------------|---------------|-----3----3--1--|1-------------|
E|3--3--3-3-3-3|1-1-1-1-1-1-1-1|3--3-----------3|---3-1_1--1--3|
  1  2  3 + 4 + 1 + 2 + 3 + 4 + 1. + 2. + 3. + 4    {  3 }
                                                 1     2   3  4

G|----------|----------|-------------|-------------|
D|----------|----------|-------------|-------------|
A|----------|----------|-------------|-------------|
E|3--3--3--3|1--1--1--1|3--3-3-1-1--1|1--1-1-1-1--1|
  1  2  3  4 1  2  3  4   {  3  }       {  3  }   
                        1    2   3  4 1    2   3  4 
[ Tab from: http://www.guitartabs.cc/tabs/w/who/my_generation_btab_ver_5.html ]
G|----------|----------|----------------|--------------|
D|----------|----------|--------0-------|--------------|
A|----------|----------|-----3----3--1--|1-------------|
E|3--3--3--3|1--1--1--1|3--3-----------3|---3-1_1--1--3|
  1  2  3  4 1  2  3  4 1. + 2. + 3. + 4   {  3  }
                                         1    2    3  4

G|----------|----------|-----------------|----------|
D|----------|----------|-----------------|----------|
A|----------|----------|-----------------|----------|
E|3--3--3--3|1--1--1--1|3--3-3-3-1--1-1-1|1--1--3--3|
  1  2  3  4 1  2  3  4   {  3  }  {  3  }1  2  3  4
                        1    2   3    4

G|----------|----------|  |-------|-------|
D|----------|----------|  |-------|-------|
A|----------|----------|x3|-rest--|-rest--|
E|3--3--3--3|1--1--1--1|  |0------|-------|
  1  2  3  4 1  2  3  4    1 2 3 4 1 2 3 4 

G|----------|----------|-------|-------|
D|----------|----------|-------|-------|
A|0--0--0--0|----------|-rest--|-rest--|x3
E|----------|3--3--3--3|0------|-------|
                        1 2 3 4 1 2 3 4 

G|----------|----------|-----------|----------|
A|----------|----------|-----------|----------|
A|0--0--0--0|----------|-----------|----------|
E|----------|3--3--3--3|0--0--0-0-0|3--3--3--3|
  1  2  3  4 1  2  3  4 1  2  3 + 4 1  2  3  4

G|---------------|---------------|-----------|----------|
D|---------------|---------------|-----------|----------|
A|0--0-0-0-0-0-0-|---------------|-----------|----------|
E|---------------|3--3-3-3-3-3-3-|0--0--0-0-0|3--3--3--3|
  1  2 + 3 + 4 +  1  2 + 3 + 4 +  1  2  3 + 4 1  2  3  4

G|--------------|--------------|-------------|----------|
A|--------------|--------------|-------------|----------|
D|0--0-0-0-0-0-0|-----------0-0|1--1--1-1-1-1|----------|
E|--------------|3--3-3-3-3----|-------------|4--4--4--4|
  1  2 + 3 + 4 + 1  2 + 3 + 4 + 1  2  3 + 4 + 1  2  3  4

G|-------------|----------|-------|-------|
D|-------------|----------|-------|-------|
A|1--1--1-1-1-1|----------|-rest--|-rest--|
E|-------------|4--4--4--4|0------|-------|
  1  2  3 + 4 + 1  2  3  4 1 2 3 4 1 2 3 4

G|----------|----------|-------|-------|
D|----------|----------|-------|-------|
A|1--1--1--1|----------|-rest--|-rest--|
E|----------|4--4--4--4|1------|-------|
  1  2  3  4 1  2  3  4 1 2 3 4 1 2 3 4

G|----------|----------|------------|-------|
D|----------|----------|------------|-------|
A|1--1--1--1|----------|------------|-rest--|
E|----------|4--4--4--4|6--/--4-rest|-------|
  1  2  3  4 1  2  3  4 1 2   + 3 4  1 2 3 4

G|----------|----------|-------|-------|
D|----------|----------|-------|-------|
A|1--1--1--1|----------|1------|-rest--|
E|----------|4--4--4--4|-rest--|-------|
  1  2  3  4 1  2  3  4 1 2 3 4 1 2 3 4

G|----------|----------|-----------|-------------|
D|----------|----------|-----------|-------------|
A|1--1--1--1|----------|1--1--1-1-1|-------------|
E|----------|4--4--4--4|-----------|4--4--4-4-4-4|

  1  2  3  4 1  2  3  4 1  2  3 + 4 1  2  3 + 4 +
  


G|---------| |---------------|
D|---------| |---------------|just keep playin that riff till the end then..
A|---------| |3-1-----3-1----|
E|3----1--1| |----3-1-----3-1|
  1  2 3  4   1 + 2 + 3 + 3 +

G|-------|
D|-------|
A|-------|
E|3------|
  1 2 3 4

thats it thanx please rate ans dont steal it
Comments