Who - I Cant Explain Chords & Tabs

 

I Cant Explain Chords & Tabs

Who Chords & Tabs

Version: 2 Type: Bass Tab

I Cant Explain Bass Tab

I CAN'T EXPLAIN
THE WHO

 REPEAT PRETTY MUCH THROUGH WHOLE SONG:
G|---------------------------------------------------------------------------|
D|---------------------------------------------------------------------------|
A|-7-5-5---7-7---------------------------------------------------------------|
E|-------5-------------------------------------------------------------------|
[ Tab from: http://www.guitartabs.cc/tabs/w/who/i_cant_explain_btab_ver_2.html ]
 OR AN EVEN EASIER WAY IF YOU CAN BELIEVE IT:
G|---------------------------------------------------------------------------|
D|---------------------------------------------------------------------------|
A|-7-5-5-0-7-7---------------------------------------------------------------|
E|---------------------------------------------------------------------------|

 OR AN EVEN EASIER EASIER WAY:
G|---------------------------------------------------------------------------|
D|---0-0---------------------------------------------------------------------|
A|-7-----0-7-7---------------------------------------------------------------|
E|---------------------------------------------------------------------------|