Who - Eminence Front Chords & Tabs

 

Eminence Front Chords & Tabs

Who Chords & Tabs

Version: 1 Type: Tab 0 ratings
1 star 2 stars 3 stars 4 stars 5 stars
comments

Eminence Front Tab

 The Who- Eminence Front
 Tabbed by Alec Bart


 |-------------xx-|
 |-------------xx-|
 |-------------x--|x  Main Riff
 |-------------xx-|
 |---8-6-8-6-8-xx-|
 |-------------xx-|
 
 |---------------------------------------------------------|
 |---------------------------------------------------------|
 |--8-8h10--10p8-10--10-8-----8----------10----------------|
 |------------------------8h10-10p8-8h10----10p8--8h10-8---|
 |---------------------------------8------------8--------8-|
 |---------------------------------------------------------|
 

 |---------------------------------------------------------------10-|
 |------------------------------------------------------------------|
 |--10p8p6-10p8p6-10p8p6-6--8-7---------------------------8h10^12---|
 |--------8------8---------8----8------------------8h10p8-----------|
 |--------------------------------11-8----------8-------------------|
 |------------------------------------11-8/--6/8-11-----------------|
[ Tab from: http://www.guitartabs.cc/tabs/w/who/eminence_front_tab.html ]
 |--13------16p13-------------------13----13----11h13-16p13-------------|
 |--16^18--------16p13--------------16^18-16^18------------16p13--------|
 |----------------------15p13--13-------------------------------15p13---|
 |---------------------------15--15----------------------------------15-|
 |----------------------------------------------------------------------|
 |----------------------------------------------------------------------|

 |--------------------------------------------------------------------|
 |--13-15-13-15-13-15-13-15-15^16-18----------------------------------|
 |--13-15-13-15-13-15-13-15-15^16---15-13--------------------12h13p12-|
 |---------------------------------------13h15p13--13h15p13-----------|
 |---------------------------------------------------------15---------|
 |-----------------------------------------------13-------------------|

 |------------------|
 |--9-8-------------|
 |--8-8--10-8-12-10-|
 |-------10-8-10-10-|
 |------------------|
 |------------------| Chorus Part

I was in a rush and the solo has some mistakes.
Comments