Who - Behind Blue Eyes Chords & Tabs

 

Behind Blue Eyes Chords & Tabs

Who Chords & Tabs

Version: 4 Type: Tab

Behind Blue Eyes Tab

   
Title: Behind Blue Eyes
Artist: The Who
Album: Who's Next

Tunning: Standard
Tabbed: Firek


Intro
    Esus4
E--------------------0--------------|---------------------0-----------|
B--------------0-------0-----0---0--|------0----------------0---------|
G--------2-------0-------2-----2----|----2---2----------2-----2---2---|
D------2---2-------2-------2-------2|--2-------2---2---2--------2-----|
A----2------------------------------|2-----------2---2----------------|
E--0--------------------------------|---------------------------------|


Verse 
    Em               G               D                 Dsus4 D
E----------0---------------3--------|------2-------2---3-----2--------|
B------------0-----------0---0------|----3---3-------3---3-----3------|
G--------------0---0---0-------0---0|--2-------2-----------2-----2----|
D-------0--------2------------------|0-----------0-----------------0--|
A-----2-----------------------------|---------------------------------|
E---0----------------3-----------3--|---------------------------------|

    Cadd9                            Asus2
E---------0---------------0---------|------0---------------0----------|
B-------3---3-----------3---3-------|----0---0-----------0---0--------|
G-----0-------0---0---0-------0---0-|--2-------2---2---2-------2---2--|
D---------------0---------------0---|------------2---------------2----|
A---3---------------3---------------|0---------------0----------------|
E-----------------------------------|---------------------------------|

    Em              G                D               Dsus4 D
E---------0---------------3---------|------2---------3-----2----------|
B-------0---0-----------0---0-------|----3---3---------3-----3--------|
G-----0-------0-0-0---0-------0---0-|--2-------2---2-----0-----2---2--|
D-----------------------------------|0-----------0---------------0----|
A-----------------------------------|---------------------------------|
E---0---------------3-----------3---|---------------------------------|

    Cadd9                            Asus2
E---------0---------------0---------|0---------------------0----------|
B-------3---3-----------3---3-------|0------0------------0---0--------|
G-----0-------0---0---0-------0---0-|2----2---2---2----2-------2------|
D---------------0---------------0---|2--2-------2----------------2-2--|
A---3---------------3---------------|0---------------0----------------|
E-----------------------------------|---------------------------------|

[ Tab from: http://www.guitartabs.cc/tabs/w/who/behind_blue_eyes_tab_ver_4.html ]
Chorus
    C           D              G              C/G   G
E------0--------2-----2-------|---------3--------------------3-------|
B---1--1--------3-----3-------|0--------0--0--1--1--0--0--0--0-------|
G---0--0--------2-----2-------|0--------0--0--0--0--0--0--0--0-------|
D---2--2-----0--0-----0--0--0-|0--------0-----2-----0--0--0--0--0--0-|
A---3--3--3--0-----0--0-----0-|------------------------------------0-|
E-----------------------------|3--3--3--------3-----3--------3--3----|

    C                 D                E           A/E      E
E---3--------3--------2-----2-------|---0-----------0-----0--------0----|
B---1--------1--------3-----3-------|---0-----------------0--------0----|
G---0--------0--------2-----2-------|---1-----------2-----1--------1----|
D---2-----2--2-----0--0--0--0--0----|---------------------2--2----------|
A---3--3--3--3--3--0--0--0--0--0--0-|------2--2--4--4-----------2-----2-|
E---------------------------------0-|0-----0--0--0-----0--------0-----0-|

    Bm                               C
E---2--------2--------2--------2----|---------0--------0-----0-------|
B---3--------3--------3--------3----|1--------1--------1-----1-------|
G---4--------4--------4--------4----|0--------0--------0-----0-----0-|
D---4--4--4--4--4--4--4--4--4--4----|2-----2--2--2--2--2--2--2--2--0-|
A---2-----2--2--2--2--2--2--2--2--0-|3--3--3--3--3--3--3--3--3--3----|
E-----------------------------------|--------------------------------|

    D           Dsus4       D           Asus2
E---2-----2-----3-----------2--2--2----|0--------0-----------0-----------------0---0--0|
B---3-----3-----3-----------3--3--3----|0--------0--------0--0-----0-----------0---0--0|
G---2-----2--2-----2--------2--2--2----|2--------2--2-----2--2--2--2-----------2---2--2|
D---0-----0--0-----0--0--0--0--0-------|---2--------2--------------2-----2--2----------|
A------0-----------------------------0-|---0--0--------0-----------0--0--0--0----------|
E------------------------------------0-|-----------------------------------------------|

E---0-----------0-----------0--------------0--0|
B---0--------0--0-----------0-----------0--0--0|
G---2-----------2-----------2--2--------2--2---|
D---2--2--2--------2--2-----------2--2-----2---|
A------0--0-----------0--0--------0------------|
E----------------------------------------------|

Repeat Verse except last measure is instead:


E---0-----0-----------0--0--0--------0------|
B---0--0--0-----------0--0--0--------0------|
G---2--2--2-----------2-----2--------2------|
D---2-----------2--2-----------2--------2---|
A---0--------0--0--0-----------0--0-----0--0|
E-------------------------------------------|

Repeat Chorus
Then Chorus in double time and there's a second guitar part (can't figure it out)
Then repeat verse



I'm 99% sure this is correct, but I don't really know the timing.
If there's anything wrong email me:
learnmorehere@gmail.com.