Who - Behind Blue Eyes Chords & Tabs

 

Behind Blue Eyes Chords & Tabs

Who Chords & Tabs

Version: 3 Type: Tab 0 ratings
1 star 2 stars 3 stars 4 stars 5 stars
comments

Behind Blue Eyes Tab

   
I'm pretty sure this is accurate.
Well hope this is easy enough to play
Written By Kim in Montomery
I'm OUT!!


Tabs to verse 1
E------------0-----------------0-------------------0---------|
B--------------0-----------------0-------------3-----3---3---|
G---------0------0-----------0-----0---------2---2-----2-----|
D-------2----------2-------0---------0-----0-----------------|
A-----2------------------2-----------------------------------|
E---0------------------3-------------------------------------|
[ Tab from: http://www.guitartabs.cc/tabs/w/who/behind_blue_eyes_tab_ver_3.html ]
E-----------0-------------------0---------------0----------------0--0--|
B------3------3---3---------3-----3---3------3-----3--3----------2---2-|
G----2---2------2-------------0-----2---------0-----2---------2---2----|
D--0--------------------2----------------2------------------2---2------|
A---------------------3----------------3------------------0---0--------|
E-------------------------------------------------------0---0----------|
Em                    G                   D
No one knows what it's like to be the bad man...........
C                        A
To be the sad man....... Behind blue eyes
Em                   G                    D
And no one knows what it's like to be hated
C                 A
to be fated...... to telling only lies

CHORUS
C          D               G
But my dreeeams they aren't as empty ......
C                 D        Em
As my cooonscience seems to be .....
Bm            C
I have hours, Only lonely
D                      A
My love is vengance... that's never free.

2nd Verse
Em               G                        D
No one knows what it's like to feel these feelings
C              A
Like I do..... And I blame you\
Em                      G              D
And no one bites back as hard at their anger
C                            A
None of myy pain and woe.... Can show through

BACK TO CHORUS
Comments