Who - Baba Oriley Chords & Tabs

 

Baba Oriley Chords & Tabs

Who Chords & Tabs

Version: 4 Type: Tab 0 ratings
1 star 2 stars 3 stars 4 stars 5 stars
comments

Baba Oriley Tab

Baba o Reilly (teenage wasteland)
The who
Baba o Reilly, Who's next

Tabbed by jjmig
Sfichtner@trevornet.org

H- hammer
P- pull off

e|---------------------------------------------------------------------|
B|---------------------------------------------------------------------|
G|-----------9-9---------------9-9-------------------------------------|
D|------9-9-------9-9------9-9-----9-9---------------------------------|
A|--7-7----------------7-7---------------------------------------------|
E|---------------------------------------------------------------------|
That's sort of like it and you can play with it from there


Verse's

e|---------------------------------------------------------------------|
B|---------------------------------------------------------------------|
G|-----5--3------------------------------------------------------------|
D|--3--5--3------------------------------------------------------------|
A|--3--3--1------------------------------------------------------------|
E|--1------------------------------------------------------------------|


"Don't cry.....                  Don't raise your eye.....      Its only teenage waste land...
               Let it ring
e|------------------------------------------2--------------------------|
B|--3----------------2----------------------3-------------2------------|
G|--2----------------2----------------------2-------------2------------|
D|--2----------------2------------------------------------2------------|
A|---------------------------------------------------------------------|
E|---------------------------------------------------------------------|
  Do the verse again

Solo
E|---14--14-------10h-11-11-11----14-16-14-18-14-14--11----------------|
B|-----------14-----------------------------------------14-------------|
G|---------------------------------------------------------------------|
D|---------------------------------------------------------------------|
A|---------------------------------------------------------------------|
E|---------------------------------------------------------------------|
[ Tab from: http://www.guitartabs.cc/tabs/w/who/baba_oriley_tab_ver_4.html ]
e|--11----11------------------------------------------------------------|
B|-----14----14---14-14-14-14-14-14-------------------------------------|
G|----------------------------------------------------------------------|
D|----------------------------------------------------------------------|
A|----------------------------------------------------------------------|
E|----------------------------------------------------------------------|

Verse's again then it goes like...

E|--12--13--15--12--13--15----12-13-15---------------------------------|
B|---------------------------------------------------------------------|
G|---------------------------------------------------------------------|
D|---------------------------------------------------------------------|
A|---------------------------------------------------------------------|
E|---------------------------------------------------------------------|

Then

e|--12h13p12h13p12h13p12h13p12h13---------------------------------------|
B|----------------------------------------------------------------------|
G|----------------------------------------------------------------------|
D|----------------------------------------------------------------------|
A|----------------------------------------------------------------------|
E|----------------------------------------------------------------------|

Then something like this

e|-12h13p12h13p12h13p12h15p12h15p12------------------------------------|
B|---------------------------------------------------------------------|
G|---------------------------------------------------------------------|
D|---------------------------------------------------------------------|
A|---------------------------------------------------------------------|
E|---------------------------------------------------------------------|
Or this

e|-13h15p13h15p13------------------------------------------------------|
B|---------------------------------------------------------------------|
G|---------------------------------------------------------------------|
D|---------------------------------------------------------------------|
A|---------------------------------------------------------------------|
E|---------------------------------------------------------------------|

Then I love the violin part, but sadly this is a guitar tab,
but that's all right so again
Bo ya
Comments