Who - Baba Oriley Chords & Tabs

 

Baba Oriley Chords & Tabs

Who Chords & Tabs

Version: 3 Type: Tab 0 ratings
1 star 2 stars 3 stars 4 stars 5 stars
comments

Baba Oriley Tab

standard tuning, EADGBe, low to high


e|--------------------------|
B|--------------------------|
G|-10-----------------------|
D|-10---10---8--------------|
A|--8---10---8--------------|
E|-------8---6--------------|
[ Tab from: http://www.guitartabs.cc/tabs/w/who/baba_oriley_tab_ver_3.html ]
e|--------------------------|
B|--------------------------|
G|-10-----------------------|
D|-10---10---8--------------|
A|--8---10---8--------------|
E|-------8---6--------------|

e|--------------------------|
B|--------------------------|
G|-10-----------------------|
D|-10---10---8--------------|
A|--8---10---8--------------|
E|-------8---6--------------|
and that repeats throughout the whole song
Comments