Who - Baba Oriley Chords & Tabs

 

Baba Oriley Chords & Tabs

Who Chords & Tabs

Version: 2 Type: Tab 0 ratings
1 star 2 stars 3 stars 4 stars 5 stars
comments

Baba Oriley Tab

   
Capo on 1

F     1335(1)(1)
C     x355xx
Bb    x133xx
Eb    xx134(3)
Csus4 8 10 10 10 xx

[synth intro; see Kevin's original transcription below for hints on copying
the synth pattern]

[Piano and bass; guitar tacit]
|| F  C | Bb   ||

Out here in the fields
I fight for my meals
I get my back into my living

I don't need to fight
To prove I'm right
I don't need to be forgiven
Yeah yeah....

[guitar]
|| F..C | Bb...||

| C   | C   | C   |    |

Don't cry
Don't raise your eye
It's only teenage wasteland

Sally, take my hand
We'll travel south crossland
Put out the fire and don't look past my shoulder

The exodus is here
The happy ones are near
Let's get together before we get much older

  F         C    Bb                  Eb   F                 C
|-13~--13------|---------------13-15-13-|-15^-15-13----------------|
|--------13-13/|15-15-15----------------|-----------15-13-15/13/15-|
|--------------|------------------------|--------------------------|
|--------------|------------------------|--------------------------|
|--------------|------------------------|--------------------------|
|--------------|------------------------|--------------------------|

  Bb
|-----------------------|
|-13--------------------|
|----------15^15^15^15^-|
|-----------------------|
|-----------------------|
|-----------------------|

Teenage wasteland
It's only teenage wasteland
Teenage wasteland oh oh
Teenage wasteland

            C       C    Bb    Bb
They're all wasted!
[ Tab from: http://www.guitartabs.cc/tabs/w/who/baba_oriley_tab_ver_2.html ]
  C                               Bb
|-12-13-15--12-|13-15--12-13-15-|-12-13-15--12-|13-15--12-13-15-|
|--------------|----------------|--------------|----------------|
|--------------|----------------|--------------|----------------|
|--------------|----------------|--------------|----------------|
|--------------|----------------|--------------|----------------|
|--------------|----------------|--------------|----------------|

  F                               Eb
|-12-13-15--12-|13-15--12-13-15-|-11-13-15--11-|13-15--11-13-15-|
|--------------|----------------|--------------|----------------|
|--------------|----------------|--------------|----------------|
|--------------|----------------|--------------|----------------|
|--------------|----------------|--------------|----------------|
|--------------|----------------|--------------|----------------|

  C
|-12-13-12-13-12-13-12-13-|12-13-12-13-12-13-12----|
|-------------------------|---------------------13-|
|-------------------------|------------------------|
|-------------------------|------------------------|
|-------------------------|------------------------|
|-------------------------|------------------------|

  Bb
|-12-13-12-13-12-13-12-13-|12-13-12-13-15-12-13-12-|
|-------------------------|------------------------|
|-------------------------|------------------------|
|-------------------------|------------------------|
|-------------------------|------------------------|
|-------------------------|------------------------|

  F
|-15-13-15-13-15-13-15-13-|15-13-15-13-15-13-15-13-|
|-------------------------|------------------------|
|-------------------------|------------------------|
|-------------------------|------------------------|
|-------------------------|------------------------|
|-------------------------|------------------------|

  Eb
|-11-13-11-13-11-13-11-13-|11-13-11-13-11-13-11-13-|
|-------------------------|------------------------|
|-------------------------|------------------------|
|-------------------------|------------------------|
|-------------------------|------------------------|
|-------------------------|------------------------|

[violin break; guitars and drums return and repeat til end]

|| F F F F | F F F F ||

[end]

| Csus4 Csus4 Csus4 Csus4 | % | % | % | F


the only reason im submitting this is becasue i hate the ppl that submitt this song
as teenage wastland when its not the title
Comments