Who - Baba O Riley Chords & Tabs

 

Baba O Riley Chords & Tabs

Who Chords & Tabs

Version: 1 Type: Tab 3 ratings
1 star 2 stars 3 stars 4 stars 5 stars
comments

Baba O Riley Tab

The Who-Baba O’Riley

This song is normally in the key of F
But I am posting it here in the key of E
This allows you to do the Synth part as well as the rhythm
[ Tab from: http://www.guitartabs.cc/tabs/w/who/baba_o_riley_tab.html ]
Intro (eighth notes):
e---------------------------------------------------
B---------------------------------------------------
G---------9-9-------------9-9-------------9-9-------
D-----9-9-----9-9-----9-9-----9-9-----9-9-----9-9---
A-7-7-------------7-7-------------7-7---------------
E---------------------------------------------------

Intro Synth with rhythm part
e--------------------------------
B--------------------------------
G--------9-9---------9-9---------
D----9-9---------9-9-----9-9-----
A--7-----------0-----------------
E-(0)--------7-------------------

You are basically playing the bass notes of E,B,A with the synth.

The rest of the song is very easy.
If you want to do it on the key of F, then capo on the first fret and move everything down a fret (ie all 7’s become 8’s)

Enjoy,
Ty
Comments