Whitney Houston - Saving All My Love For You Chords & Tabs

 

Saving All My Love For You Chords & Tabs

Whitney Houston Chords & Tabs

Version: 1 Type: Tab 0 ratings
1 star 2 stars 3 stars 4 stars 5 stars
comments

Saving All My Love For You Tab

B----------------------------------------------------------------------------------|
G---5--4---------------------------------------------------------------------------|
D---------5------5----7------------------------------------------------------------|
A------------7---------------------7-7---------------------------------------------|
E--------------------------------------------8---5--8------------------------------|
[ Tab from: http://www.guitartabs.cc/tabs/w/whitney_houston/saving_all_my_love_for_you_tab.html ]
e---------------------------------------------------------------------------------|
B---------------------------------------------------------------------------------|
G---5--4--------------------------------------------------------------------------|
D---------5------5----7-----------------------------------------------------------|
A------------7---------------------7-7--------------------------------------------|
E--------------------------------------------8---5--8---10------------------------|
Comments