Whitmore - Wallace Chords & Tabs

 

Wallace Chords & Tabs

Whitmore Chords & Tabs

Version: 1 Type: Bass Tab 0 ratings
1 star 2 stars 3 stars 4 stars 5 stars
comments

Wallace Bass Tab

Band: Whitmore
Song: Wallace
Tabbed by Michael M

Let ring = *

Intro
|---------------------------------------------------|
|---------------------------------------------------|
|--55555555-------------------------5*--------------| X1
|-----------55555555-777777-555555------------------|

Verse
|----------------------------------------------|
|----------------------------------------------|
|--55555555------------------------555555------| X2
|-----------55555555-777777-555555---------5---|

Pre-chorus
|---------------------------------------------|
|---------------------------------------------|
|---------------------------------------------| X1 
|--33333333--55555555--3--22222222--3*---5*---|

Repeat verse X2
Repeat Pre-chorus X1
[ Tab from: http://www.guitartabs.cc/tabs/w/whitmore/wallace_btab.html ]
Chorus
|----------------------------------------------------------------|
|----------4--5--7----------77--5--4-----------------------------|
|--555555-----------555555------------333333--555555--777777-----| X2
|----------------------------------------------------------------|

Repeat verse X2

|------------------------------------------|
|----7-----5-----7-----5--4----------------|
|-5-----5-----5-----5----------------------| X2
|------------------------------------------|

Final chorus
|------------------------------------------------------|
|------------------------------------------------------|
|--55555555------------33333333--55555555--77777777----| X1
|------------77777777----------------------------------|

|--------------------------------------------------------------|
|----------4--5--7----------7--5--4----------------------------|
|--555555-----------555555-----------33333--555555--777777-----|    X3
|--------------------------------------------------------------|
Ending
|----------------------------|
|----------------------------|
|--55--44--33--22--5/--------|
|----------------------------|

I'm pretty sure this is right. Please rate this tab Thanks!
Comments