Whitmore - Too Long Too Late Chords & Tabs

 

Too Long Too Late Chords & Tabs

Whitmore Chords & Tabs

Version: 1 Type: Bass Tab 0 ratings
1 star 2 stars 3 stars 4 stars 5 stars
comments

Too Long Too Late Bass Tab

I worked this out on guitar so I'm not TOTALY sure it's perfect.
Either way, it's impressivly close considering.
All the right parts are below, you'll just have to sort throug
it all. It's all kind of in order and not hard to understand.
I'll write the Guitar TAB later tonight.

INTRO
G:---------------------------------|
D:---------------------------------|
A:33333333-------------------------|
E:--------3333333355555555111-1113-|
then
G:--------------------------------|
D:--------------------------------|
A:33333333------------------------|
E:--------3333333355555555111-----|
X2
[ Tab from: http://www.guitartabs.cc/tabs/w/whitmore/too_long_too_late_btab.html ]
VERSE
G:-----------------------------------    |-----|
D:-235---------------532--------32---    |-----|
A:3----235-457-8753-3----532-310--30- X2 |-----|
E:----3---5-------------3---1--------    |3~~~-|

G:---------------------------------|
D:---------------------------------|
A:3333333333333333-----------------|
E:----------------3333333333333333-|

G:--------------------------------  |----------------|
D:--------------------------------  |----------------|
A:------------------------33220022  |----------------|
E:555555555555555511111111--------  |5~------1~-/3---|

G:----------------------|
D:----------------------|
A:--------3--55555555---|
E:55555555-3---------13-|

Az The Spaz
aarondavies (at) hotmail (dot) CO (dot) UK
Comments