Whitmore - Scones Chords & Tabs

 

Scones Chords & Tabs

Whitmore Chords & Tabs

Version: 1 Type: Bass Tab 0 ratings
1 star 2 stars 3 stars 4 stars 5 stars
comments

Scones Bass Tab

whitmore
scones
tabbed by daniel182

this song may not be 100% correct but im pretty sure it is nowhere below
95% at the least, please rate this tab!!!

Intro comes in at 00:02
|------------------------|
|-44-5-7-7p57-7p57-7p5-7-|
|------------------------|x1
|------------------------|

Pre Verse
|--------------------|
|--------------------|
|-5555---------------|x4
|-----5555-3333-5555-|

Verse 1
|--------------------|
|--------------------|
|-5555---------------|x4
|-----5555-3333-5555-|

Chorus if you listen closely he does hit different notes on the 4th time round
|----------------|  |------------------|
|----------------|  |---------77-55-44-|
|-22-------------|x3|-22---------------|x1
|---333-55555555-|  |---333-55---------|
[ Tab from: http://www.guitartabs.cc/tabs/w/whitmore/scones_btab.html ]
Pre Verse
|--------------------|  |----------------------|  |--------------------|
|--------------------|  |----------------7-5-4-|  |--------------------|
|-5555---------------|x1|-5555-----------------|x1|-5555---------------|x2
|-----5555-3333-5555-|  |-----5555-3333-5------|  |-----5555-3333-5555-|

Verse 2
|---------------------------|
|---7-----------------------|
|-5---5---7------5------7---|x4
|-------5---5--3---3--5---5-|

Chorus
|----------------|  |------------------|
|----------------|  |---------77-55-44-|
|-22-------------|x3|-22---------------|x1
|---333-55555555-|  |---333-55---------|

Bridge
|---------------------------|  |---------------------|  |-----------------|
|---7-----------------------|  |---77----------------|  |---77------------|
|-5-------7-------5-------7-|x2|-55----77---55----77-|x1|-55----77---55---|x1
|------5--------3-------5---|  |-----55---33----55---|  |-----55---33---5-|

Chorus
|----------------|  |------------------|
|----------------|  |---------77-55-44-|
|-22-------------|x3|-22---------------|x1
|---333-55555555-|  |---333-55---------|

Outro
|--------------------|  |------|
|--------------------|  |------|
|-5555---------------|x4|-5~~\-|x1
|-----5555-3333-5555-|  |------|

thats it! please rate this tab!!!
Comments