Whitmore - Alison Chords & Tabs

 

Alison Chords & Tabs

Whitmore Chords & Tabs

Version: 2 Type: Tab 0 ratings
1 star 2 stars 3 stars 4 stars 5 stars
comments

Alison Tab

-------------------------------------------------------------------------------
			     Alison - Whitmore
-------------------------------------------------------------------------------

Tabbed by:fishbone
Email:toasterboy_182@hotmail.com
[ Tab from: http://www.guitartabs.cc/tabs/w/whitmore/alison_tab_ver_2.html ]
Tuning: standard
                     intro- x1
e|-----------------------------------------------------------------------------|
B|-----------------------------------------------------------------------------|
G|-----------------------------------------------------------------------------|
D|5xxxxxxxxxxxxx--5xxxxxxxxxxxxx-----------------------------------------------|
A|3xxxxxxxxxxxxx--3xxxxxxxxxxxxx-----------------------------------------------|
E|-----------------------------------------------------------------------------|
"think about you every now and then, "
e|-----------------------------------------------------------------------------|
B|-----------------------------------------------------------------------------|
G|-----------------------------------------------------------------------------|
D|5xxxx-------------------------play this 4 times------------------------------|
A|3xxxx-5xxxx-7xxxx-3xxxx------------------------------------------------------|
E|------3xxxx-5xxxx-1xxxx------------------------------------------------------|
   " i cant take anymore, what is my life for yeah.." (let ring)
e|------------------------------------------------------------------------------|
B|------------------------------------------------------------------------------|
G|---5------------------5-55----------------------------------------------------|
D|---5------------------5-55----------------------------------------------------|
A|---3------------------3-33----------------------------------------------------|
E|------------------------------------------------------------------------------|
    CHORUS "alison, i wanna talk to you, alison il be forever blue...(x2)
e|------------------------------------------------------------------------------|
B|------------------------------------------------------------------------------|
G|---5--------------------------------------------------------------------------|
D|---5-(x7)--5----------7---------3---------------------------------------------|
A|---3-------5---(x7)---7-(x7)----3-(x7)----------------------------------------|
E|-----------3----------5---------1---------------------------------------------|
   "AAAAAAlison, aaaaalison" (x2)
e|------------------------------------------------------------------------------|
B|------------------------------------------------------------------------------|
G|---5--------------------------------------------------------------------------|
D|---5-(x5)--5----------7---------3---------------------------------------------|
A|---3-------5---(x5)---7-(x5)----3-(x5)----------------------------------------|
E|-----------3----------5---------1---------------------------------------------|
   verse again.. " i think all youre friends are cool, "  (x4)
e|-----------------------------------------------------------------------------|
B|-----------------------------------------------------------------------------|
G|-----------------------------------------------------------------------------|
D|5xxxx------------------------------------------------------------------------|
A|3xxxx-5xxxx-7xxxx-3xxxx------------------------------------------------------|
E|------3xxxx-5xxxx-1xxxx------------------------------------------------------|

  " i cant take anymore, what is my life for yeah.." (let ring)
e|------------------------------------------------------------------------------|
B|------------------------------------------------------------------------------|
G|---5------------------5-55----------------------------------------------------|
D|---5------------------5-55----------------------------------------------------|
A|---3------------------3-33----------------------------------------------------|
E|------------------------------------------------------------------------------|

CHORUS "alison, i wanna talk to you, alison il never cheat on you...(x2)
e|------------------------------------------------------------------------------|
B|------------------------------------------------------------------------------|
G|---5--------------------------------------------------------------------------|
D|---5-(x7)--5----------7---------3---------------------------------------------|
A|---3-------5---(x7)---7-(x7)----3-(x7)----------------------------------------|
E|-----------3----------5---------1---------------------------------------------|
       "times have passed n things have changed.."
e|-----------------------------------------------------------------------------|
B|-----------------------------------------------------------------------------|
G|-----------------------------------------------------------------------------|
D|---5-------------------------------------------------------------------------|
A|---3--(x12) -5--------7--------3---------------------------------------------|
E|-------------3-(12)---5(x12)---1-(x12)---------------------------------------|

   THIS NEXT BIT IS THE BASS ONLY..

CHORUS "alison, i wanna talk to you, alison il ALWAYS cheat on you...FUCK YOU!(x2)
e|------------------------------------------------------------------------------|
B|------------------------------------------------------------------------------|
G|---5--------------------------------------------------------------------------|
D|---5-(x7)--5----------7---------3---------------------------------------------|
A|---3-------5---(x7)---7-(x7)----3-(x7)----------------------------------------|
E|-----------3----------5---------1---------------------------------------------|
thats it its my first tab! e mail me if u have any commets or corrections.
Comments