Whitesnake - Slide It In Chords & Tabs

 

Slide It In Chords & Tabs

Whitesnake Chords & Tabs

Version: 2 Type: Tab 0 ratings
1 star 2 stars 3 stars 4 stars 5 stars
comments

Slide It In Tab

arist-whitesnake
song-slide it in
album-slide it in 1984
tabbed by-smellslikefeet1

guitar1
intro/ verse
|-0-0-0-x-x--2-3-2-3-2--------|
|-2-3-2-x-x--3-3-3-3-3--------|
|-2-4-2-x-x--2-2-2-2-2--------|
|-2-2-2-x-x--0-0-0-0-0--------|x12
|-------x-x-------------------|
|-------x-x-------------------|

guitar 2
on the 8th time come in with this. play it with heavy palmute
|--0-0-0-0-0-0-0-0--|
|--2-2-2-2-2-2-2-2--|
|--2-2-2-2-2-2-2-2--|
|--2-2-2-2-2-2-2-2--|x4
|-------------------|
|-------------------|

chorus

im gonna slide it in right to the top
|---------3-------2---0----0-------2-|
|---------3-------3---2----2-------3-|
|---------0-------2---2----2-------2-|
|---------0-------0---2----2-------0-|x3
|---------2-----------0----0---------|
|---------3--------------------------|
[ Tab from: http://www.guitartabs.cc/tabs/w/whitesnake/slide_it_in_tab_ver_2.html ]
outro from chorus
slide it in,slide it in,slide it
|-3---3--2----3----3--2---3----2|
|-3---3--3----3----3--3---3----3|
|-0---0--2----0----0--2---0----2|
|-0---0--0----0----0--0---0----0|
|-2---2-------2----2------2-----|
|-3---3-------3----3------3-----|

baby
|-0-0-0-x-x--2-3-2-3-2-|-0-0-0--3------|
|-2-3-2-x-x--3-3-3-3-3-|-2-3-2--3------|
|-2-4-2-x-x--2-2-2-2-2-|-2-4-2--0------| 
|-2-2-2-x-x--0-0-0-0-0-|-2-2-2--0------| 
|-------x-x------------|--------2------| 
|-------x-x------------|--------3------|
play verse again
play chorus again



bridge/solo chords
|------|-----|-----|-----------|
|------|-----|-----|-----------|
|-7----|-5---|-----|-5-5-7-7---|
|-7----|-5---|-5---|-5-5-7-7---|x4
|-5----|-3---|-5---|-3-3-5-5---|
|------|-----|-3---|-----------|


thats all ya need to know jsut listen to the rest of the song so you know where it all goes!
enjoi
Comments