Whitesnake - Is This Love Chords & Tabs

 

Is This Love Chords & Tabs

Whitesnake Chords & Tabs

Version: 1 Type: Tab 0 ratings
1 star 2 stars 3 stars 4 stars 5 stars
comments

Is This Love Tab


       IS THIS LOVE    BY    Whitesnake

E---------0-----------------------------
B-----------3--------------3------------
G-------------0------0-------0----------
D------------------4-----4-----4--------
A---0H2----------2-----3----------------
e-------0-------------------------------

[ Tab from: http://www.guitartabs.cc/tabs/w/whitesnake/is_this_love_tab.html ]
E---------------------
B-------------1-------
G---9-7-5-4-0---2-----
D---9-7-5-4-3---------
A---------------------
e---------------------


E-----------------
B--------3--------
G------0----------
D----4------------
A-----------------
e-----------------

....IS THIS LOVE


E----15-14-12-------12-12-----
B-------------15-15-----------
G-----------------------------
D-----------------------------
A-----------------------------
e-----------------------------


THATS IT!!!!!     WE WISH YOU WELL........

             99c2stephenst@hinchbk.sch.uk
Comments