Whitesnake - Here I Go Again Chords & Tabs

 

Here I Go Again Chords & Tabs

Whitesnake Chords & Tabs

Version: 4 Type: Tab

Here I Go Again Tab

E   --------------------------------------------------------------|
b   --------------------------------------------------------------|
g   -----------------12b-14  12-11--12--------------12-14-16------|
d   --9- 10- 12------------------------10-----14-15---------------|
a   ------------12------------------------------------------------|
E   --------------------------------------------------------------|
[ Tab from: http://www.guitartabs.cc/tabs/w/whitesnake/here_i_go_again_tab_ver_4.html ]
E   -----------------------------------------------15b17-15b17----|
b   --------------------------------------------------------------|
g   --16-p-14-p-12-14-----------11-12-12b14r12--------------------|
d   -------------------------12-----------------------------------|
a   ----------------------12--------------------------------------|
E   -------------------10-----------------------------------------|

E   --13-15-------------------------------------------------------|
b   --------13----------------------------------------------------|
g   --------------------------------------------------------------|
d   --------------------------------------------------------------|
a   --------------------------------------------------------------|
E   --------------------------------------------------------------|

This is my first tab. I havnt quite figured the rest out yet. But Let me know how this 
works out for you and if there is any mistakes.