Whitesnake - Here I Go Again Chords & Tabs

 

Here I Go Again Chords & Tabs

Whitesnake Chords & Tabs

Version: 3 Type: Tab 0 ratings
1 star 2 stars 3 stars 4 stars 5 stars
comments

Here I Go Again Tab

   
A great song by these guys, with a kool solo, rock and enjoy!!!!

Chords: G5
        A5
        D5
        C5
        G
        C
        D
        E5
        B5
         .- Palm mute

Intro and verse;

e-------------------------------------------------------------|
B-------------------------------------------------------------|
G-------------------------------------------------------------|
D----------- x16 then---5-4-2-----------------7-7-7-7-7-7-7-7-|
A------5555-------------3-2-0-7-7-7-7-7-7-7-7-5-5-5-5-5-5-5-5-|
E-15/3-3333-------------------5-5-5-5-5-5-5-5-----------------|
       ....                   . . . . . . . . . . . . . . . .

e--------------------------------------------------|
B--------------------------------------------------|
G--------------------------------------------------|
D-----------------7-7-7-7-7-7-7-7------------------| Do the accenting part
A-7-7-7-7-7-7-7-7-5-5-5-5-5-5-5-5------------5-5-5-|  16 times Then...
E-5-5-5-5-5-5-5-5----------------------------3-3-3-|
  . . . . . . . . . . . . . . . .            . .

e---------------------------------------------------------------|
B---------------------------------------------------------------|
G---------------------------------------------------------------|
D-5-4-2-----------------7-7-7-7-7-7-7-7-----------------7--5-7--|
A-3-2-0-7-7-7-7-7-7-7-7-5-5-5-5-5-5-5-5-7-7-7-7-7-7-7-7-5--3-5--|
E-------5-5-5-5-5-5-5-5-----------------5-5-5-5-5-5-5-5---------|
        . . . . . . . . . . . . . . . . . . . . . . . .

Chorus: Do downstrums on each:

e-3-3-2-2-0--0-2------------------------------------------------------------------------------|
B-3-3-3-3-1--1-3------------------------------------------------------------------------------|
G-4-4-2-2-0--0-2- x3 then 4th time:                                         D-5-5-0-0-2--2-0--|
A-5-5-----3--3--------------------------------------------------------------------------------|
E-3-3-----------------------------------------------------------------------------------------|
[ Tab from: http://www.guitartabs.cc/tabs/w/whitesnake/here_i_go_again_tab_ver_3.html ]
e-3-3-2-2-0--------|
B-3-3-3-3-1--------|
G-4-4-2-2-0--------|
D-5-5-0-0-2--5-4-2-| Then do the corresponding a5, d5 palm muting
A-5-5-----3--3-2-0-|
E-3-3--------------|

Then for verse 2 miss the first part out and just do 16 accented G5

Chorus:  After 2nd chorus do this:

e---------------------------------------|
B---------------------------------------|
G---------------------------------------|
D-9-999-2-222- x3 then-7777777777777777-|
A-7-777-2-222----------5555555555555555-|
E---------------------------------------|
                       ................

Solo:

e----------------------------------------|
B------------ph15------------------------|
G-------12b14----rpb-bd12-11-12-14-------|
D-12h14---------------------------12/14--|
A----------------------------------------|
E----------------------------------------|

e-----------------------------|
B-----------------------------|
G-----------------------------|
D-12-10-9b10bd9-----7/12------|
A---------------10-9-----9/7--|
E-----------------------------|

e-----------12-14-15-15b17-15b17bd15-----|
B---------13------------------------15vv-|
G-------12-------------------------------|
D-5/14-----------------------------------|
A----------------------------------------|
E----------------------------------------|

e-20b22bd20-19-19b20bd19-15-17b19bd17-14-14b15bd14-12--------------------|
B-----------------------------------------------------15-12b13bd12-10vv--|
G------------------------------------------------------------------------|
D------------------------------------------------------------------------|
A------------------------------------------------------------------------|
E------------------------------------------------------------------------|

Then for pre chorus do this:

e---------------------------------------------|
B---------------------------------------------|
G---------------------------------------------|
D-------------7-7-7-7-7-7-------------7--5-7--|
A-7-7-7-7-7-7-5-5-5-5-5-5-7-7-7-7-7-7-5--3-5--|
E-5-5-5-5-5-5-------------5-5-5-5-5-5---------|
  . . .       . . .       . . .

After the three palm mutes, do alternate strumming- down, up, down

Then just repeat chorus until the end:

ph- Pinched harmonic
V- Vibrato
/- Slide
H- hammer-on
Bu- bend up
Bd- Bend down
Rpb- Keep the bend in place and pick the bent note
Comments