Whitesnake - Crying In The Rain Chords & Tabs

 

Crying In The Rain Chords & Tabs

Whitesnake Chords & Tabs

Version: 1 Type: Bass Tab

Crying In The Rain Bass Tab

Band- Whitesnake
Song- Crying In The Rain

G||----------------------------|---------------------------|
D||----------------------------|---------------------------|
A||----------------------3--2--|---------------------------|
E||----------------------------|--0------------------------|


                                                         
----------------------------|---------------------------|
----------------------------|---------------------------|
----------------------3--2--|---------------------------|
----------------------------|--0------------------------|


                                                         
----------------------------|---------------------------|
----------------------------|---------------------------|
----------------------3--2--|---------------------------|
----------------------------|--0------------------------|


                                                                    
----------------------------|--------------------------------------|
----------------------------|--------------------------------------|
----------------------3--2--|--------------------------------------|
----------------------------|--0--0--0--0--0--0--0--0--0--0--0--0--|


                                                                         
--------------------------------------|---------------------------------|
--------------------------------------|---------------------------------|
--------------------------------------|-----------5----7--------3----5--|
--0--0--0--0--0--0--0--0--0--0--0--0--|--0--0--0------------------------|


                                                                   
--------------------------------|---------------------------------|
--------------------------------|---------------------------------|
-----------------------0--2--3--|-----------5----7--------3----5--|
--------------0--2--3-----------|--0--0--0------------------------|


                                                                    
--------------------------------|----------------------------------|
--------------------------------|----------------------------------|
--------------5--5--5--5--3--2--|----------2--------5--------2-----|
--------------------------------|--0----0-----3--0--------------3--|


                                                                       
-----------------------------------|----------------------------------|
-----------------------------------|----------------------------------|
--4--------2-----2--3-----0--2-----|----------2--------5--------2-----|
--------------3--------3--------3--|--0----0-----3--0--------------3--|


                                                                       
-----------------------------------|----------------------------------|
-----------------------------------|----------------------------------|
--4--------2-----2--3-----0--2-----|----------------------------------|
--------------3--------3--------3--|--0----0--0----0--0----0--0----0--|


                                                                      
----------------------------------|----------------------------------|
----------------------------------|----------------------------------|
----------------------------------|----------------------------------|
--0----0--0----0--0----0--0----0--|--0----0--0----0--0----0--0----0--|


                                                                      
----------------------------------|----------------------------------|
----------------------------------|----------------------------------|
----------------------------------|----------------------------------|
--0----0--0----0--0----0--0----0--|--0----0--0----0--0----0--0----0--|


                                                                      
----------------------------------|----------------------------------|
----------------------------------|----------------------------------|
----------------------------------|----------------------------------|
--0----0--0----0--0----0--0----0--|--0----0--0----0--0----0--0----0--|


                                                                  
----------------------------------|------------------------------|
----------------------------------|------------------------------|
----------------------------------|--0----0-------0--------------|
--0----0--0----0--0----0--0----0--|----------3-------------------|


                                                                  
------------------------------|----------------------------------|
------------------------------|----------------------------------|
--0----0-------0--------------|----------------------------------|
----------3-------------------|--0----0--0----0--0----0--0----0--|


                                                                      
----------------------------------|----------------------------------|
----------------------------------|----------------------------------|
----------------------------------|----------------------------------|
--0----0--0----0--0----0--0----0--|--3----3--3----3--3----3--3----3--|


                                                                          
----------------------------------|--------------------------------------|
----------------------------------|--------------------------------------|
--0----0--0----0--0----0--0----0--|--3--2--3--2--3--2--3--2--3--2--3--4--|
----------------------------------|--------------------------------------|


                                                                       
------------------------------------|---------------------------------|
------------------------------------|---------------------------------|
--5--5--5--5--5--5--5--5--5--5------|-----------5----7--------3----5--|
------------------------------------|--0--0--0------------------------|


                                                                   
--------------------------------|---------------------------------|
--------------------------------|---------------------------------|
-----------------------0--2--3--|-----------5----7--------3----5--|
--------------0--2--3-----------|--0--0--0------------------------|


                                                                    
--------------------------------|----------------------------------|
--------------------------------|----------------------------------|
--------------5--5--5--5--3--2--|----------2--------5--------2-----|
--------------------------------|--0----0-----3--0--------------3--|


                                                                       
-----------------------------------|----------------------------------|
-----------------------------------|----------------------------------|
--4--------2-----2--3-----0--2-----|----------2--------5--------2-----|
--------------3--------3--------3--|--0----0-----3--0--------------3--|


                                                                       
-----------------------------------|----------------------------------|
-----------------------------------|----------------------------------|
--4--------2-----2--3-----0--2-----|----------------------------------|
--------------3--------3--------3--|--0----0--0----0--0----0--0----0--|


                                                                     
----------------------------------|---------------------------------|
----------------------------------|---------------------------------|
----------------------------------|------------------7----7--7------|
--0----0--0----0--0----0--0----0--|--0----0--0----0-----------------|


                                                                    
--------------------------------|----------------------------------|
--------------------------------|----------------------------------|
--------------3--2-----0--2-----|----------------------------------|
--------------------3--------3--|--0----0--0----0--0----0--0----0--|


                                                                      
----------------------------------|----------------------------------|
----------------------------------|----------------------------------|
----------------------------------|----------------------------------|
--0----0--0----0--0----0--0----0--|--0----0--0----0--0----0--0----0--|


                                                                  
----------------------------------|------------------------------|
----------------------------------|------------------------------|
----------------------------------|--0----0-------0--------------|
--0----0--0----0--0----0--0----0--|----------3-------------------|


                                                                  
------------------------------|----------------------------------|
------------------------------|----------------------------------|
--0----0-------0--------------|----------------------------------|
----------3-------------------|--0----0--0----0--0----0--0----0--|


                                                                       
-----------------------------------|----------------------------------|
-----------------------------------|----------------------------------|
--4--------2-----2--3-----0--2-----|----------------------------------|
--------------3--------3--------3--|--3----3--3----3--3----3--3----3--|


                                                                          
----------------------------------|--------------------------------------|
----------------------------------|--------------------------------------|
--0----0--0----0--0----0--0----0--|--3--2--3--2--3--2--3--2--3--2--3--4--|
----------------------------------|--------------------------------------|


                                                                       
------------------------------------|---------------------------------|
------------------------------------|---------------------------------|
--5--5--5--5--5--5--5--5--5--5------|-----------5----7--------3----5--|
------------------------------------|--0--0--0------------------------|

[ Tab from: http://www.guitartabs.cc/tabs/w/whitesnake/crying_in_the_rain_btab.html ]
                                                                   
--------------------------------|---------------------------------|
--------------------------------|---------------------------------|
-----------------------0--2--3--|-----------5----7--------3----5--|
--------------0--2--3-----------|--0--0--0------------------------|


                                                             
--------------------------|---------------------------------|
--------------------------|---------------------------------|
--------------------------|-----------5----7--------3----5--|
--------------------------|--0--0--0------------------------|


                                                             
--------------------------|---------------------------------|
--------------------------|---------------------------------|
--------------------------|-----------5----7--------3----5--|
--------------------------|--0--0--0------------------------|


                                                      
--------------------------|--------------------------|
--------------------------|--------------------------|
--------------------------|--------------------------|
--------------------------|--------------------------|


                                                                              
--------------------------------------|--------------------------------------|
--------------------------------------|--------------------------------------|
--7---7-7--7-----5--7---7-7--7-----5--|--7---7-7--7-----5--7---7-7--7-----5--|
--------------7-----------------7-----|--------------7-----------------7-----|


                                       
--------------------------------------|
--------------------------------------|
--5---5-5--5-----3--5---5-5--5-----3--|
--------------5-----------------5-----|


                                          
-----------------------------------------|
-----------------------------------------|
--5-5--5--5-5-5--5--5-5-5--5--5-5-----3--|
-----------------------------------5-----|


                                                                              
--------------------------------------|--------------------------------------|
--------------------------------------|--------------------------------------|
--0---0-0--0--------0---0-0--0--------|--0---0-0--0--------0---0-0--0--------|
--------------0--3--------------0--3--|--------------0--3--------------0--3--|


                                                                          
--------------------------------------|----------------------------------|
--------------------------------------|----------------------------------|
--3---3-3--3-----3--3---3-3--3-----3--|--3---3---3---3---3---3---5---5---|
--------------3-----------------3-----|----------------------------------|


                                                                              
--------------------------------------|--------------------------------------|
--------------------------------------|--------------------------------------|
--7---7-7--7-----5--7---7-7--7-----5--|--7---7-7--7-----5--7---7-7--7-----5--|
--------------7-----------------7-----|--------------7-----------------7-----|


                                                                              
--------------------------------------|--------------------------------------|
--------------------------------------|--------------------------------------|
--7---7-7--7-----5--7---7-7--7-----5--|--5---5-5--5-----3--5---5-5--5-----3--|
--------------7-----------------7-----|--------------5-----------------5-----|


                                                                            
----------------------------------|----------------------------------------|
----------------------------------|----------------------------------------|
--5--5----5--5----5--5----5--5----|--3-3--3--3-3--3--2--0-0--0--0-0--------|
----------------------------------|----------------------------------0--3--|


                                         
----------------------------------------|
----------------------------------------|
--0-0--0--0-0--------0-0--0--0-0--------|
---------------0--3---------------0--3--|


                                                                               
----------------------------------------|-------------------------------------|
----------------------------------------|-------------------------------------|
--3-3--3--3-3-----0--3-3--3--3-3-----0--|--3-3--3--3-3-3--3--3-3----3----3----|
---------------3------------------3-----|-------------------------------------|


                                                   
--------------------------------------------------|
--------------------------------------------------|
--0-0-0-0-0-0-0-0-0-0-0-0-0-0-0-0-0-0-0-0-0-0-0-0-|
--------------------------------------------------|


                                                   
--------------------------------------------------|
--------------------------------------------------|
--0-0-0-0-0-0-0-0-0-0-0-0-0-0-0-0-0-0-0-0-0-0-0-0-|
--------------------------------------------------|


                                                   
--------------------------------------------------|
--------------------------------------------------|
--0-0-0-0-0-0-0-0-0-0-0-0-0-0-0-0-0-0-0-0-0-0-0-0-|
--------------------------------------------------|


                                                   
--------------------------------------------------|
--------------------------------------------------|
--0-0-0-0-0-0-0-0-0-0-0-0-0-0-0-0-0-0-0-0-0-0-0-0-|
--------------------------------------------------|


                                                   
--------------------------------------------------|
--------------------------------------------------|
--2-2-2-2-2-2-2-2-2-2-2-2-2-2-2-2-2-2-2-2-2-2-2-2-|
--------------------------------------------------|


                                                   
--------------------------------------------------|
--------------------------------------------------|
--3-3-3-3-3-3-3-3-3-3-3-3-3-3-3-3-3-3-3-3-3-3-3-3-|
--------------------------------------------------|


                                                                 
------------------------------|---------------------------------|
------------------------------|---------------------------------|
--5----5----5----5------------|-----------5----7--------3----5--|
------------------------------|--0--0--0------------------------|


                                                             
--------------------------|---------------------------------|
--------------------------|---------------------------------|
--------------------------|-----------5----7--------3----5--|
--------------------------|--0--0--0------------------------|


                                                             
--------------------------|---------------------------------|
--------------------------|---------------------------------|
--------------------------|-----------5----7--------3----5--|
--------------------------|--0--0--0------------------------|


                                                             
--------------------------|---------------------------------|
--------------------------|---------------------------------|
--------------------------|-----------5----7--------3----5--|
--------------------------|--0--0--0------------------------|


                                                          
--------------------------|------------------------------|
--------------------------|------------------------------|
--------------------------|--0----0-------0--------------|
--------------------------|----------3-------------------|


                                                                  
------------------------------|----------------------------------|
------------------------------|----------------------------------|
--0----0-------0--------------|----------------------------------|
----------3-------------------|--0----0--0----0--0----0--0----0--|


                                                                       
-----------------------------------|----------------------------------|
-----------------------------------|----------------------------------|
--4--------2-----2--3-----0--2-----|----------------------------------|
--------------3--------3--------3--|--3----3--3----3--3----3--3----3--|


                                                                          
----------------------------------|--------------------------------------|
----------------------------------|--------------------------------------|
--0----0--0----0--0----0--0----0--|--3--2--3--2--3--2--3--2--3--2--3--4--|
----------------------------------|--------------------------------------|


                                                                       
------------------------------------|---------------------------------|
------------------------------------|---------------------------------|
--5--5--5--5--5--5--5--5--5--5------|-----------5----7--------3----5--|
------------------------------------|--0--0--0------------------------|


                                                                   
--------------------------------|---------------------------------|
--------------------------------|---------------------------------|
-----------------------0--2--3--|-----------5----7--------3----5--|
--------------0--2--3-----------|--0--0--0------------------------|


                                                                   
--------------------------------|---------------------------------|
--------------------------------|---------------------------------|
--------------5--5--5--5--3--2--|-----------5----7--------3----5--|
--------------------------------|--0--0--0------------------------|


                                                                       
------------------------------------|---------------------------------|
------------------------------------|---------------------------------|
----5--5--5----5--5--5--5--5--5--5--|-----------5----7--------3----5--|
------------------------------------|--0--0--0------------------------|


                                                        
--------------------------|---------------------------||
--------------------------|---------------------------||
--------------------------|--7------------------------||
--------------------------|---------------------------||