White Zombie - Thunderkiss Chords & Tabs

 

Thunderkiss Chords & Tabs

White Zombie Chords & Tabs

Version: 1 Type: Bass Tab 0 ratings
1 star 2 stars 3 stars 4 stars 5 stars
comments

Thunderkiss Bass Tab

   
From: Joni Lawler lawler@willinet.net
SUbject: White Zombie BASS TAB (THUNDERKISS '65)
Date: 02 March 01 

THUNDERKISS '65--- TABBED BY JONI LAWLER
=============== 

INTRO...(GUITAR STARTS OFF THEN COME IN)
G|-----------------------------------------------|
D|-----------------------------------------------|
A|2--1-------------------------------------------|
E|-3--2--0-0-00-00-0--00-00-0-00-00-0-00-00-0-00-|

G|--------------------------------------|
D|--------------------------------------|
A|---------------------------------2--1-|
E|00-0-00-00-0-00-00-0-00-00-6-0-6--3--2|


Verses 1&2:
  
G|-------------------------------------|
D|-------------------------------------|
A|-----------------------------2---1---|X4
E|0--0--00-00-0--00-00-0-00--0---3---2-|


1st & 2nd Chorus:

G|----------------------------|
D|----------------------------|X4
A|---7----5-6-7---7-----------|
E|-0---0--------0---0---5-0-3-|
 
go back to verse and play to here again


Bridge1:
(Voiceover)

G|-----------------------------|
D|-----------------------------|
A|----3----6-5--3--------------|
E|-5----0---------3-5-5-3--4-3-|

G|---------------------------|
D|---------------------------|
A|---------------------------|
E|-2--2-2-2--2-1--1-1--1--0--|

[ Tab from: http://www.guitartabs.cc/tabs/w/white_zombie/thunderkiss_btab.html ]
CONTINUED BRIDGE AFTER DRUM BUILD UP(guitar lead)
  
G|--------------------------------------|}
D|--------------------------------------|}
A|------7-------5-7-----8---8-7---------|}
E|-0-0----0-5-7-----0-0---0-----8-7-----|}      
                                         }-----X2
G|---------------------------------|     }     
D|---------------------------------|     }
A|-----7-------5-7-----8-----------|     }
E|-0-0---0-5-7-----0-0---0-0-5-0-3-|     }



Third Verse:

G|--------------------|}----|------------------|
D|--------------------|}X3  |------------------|
A|--------------------|}    |------------------| repeat entire line
E|-0--0--3--0-0-0h3-5-|}----|-0--0--3--0-3-2-1-|



Last Bridge 

G|--------------------------------------|
D|--------------------------------------|
A|------7-------5-7-----8---8-7---------|
E|-0-0----0-5-7-----0-0---0-----8-7-----|

G|---------------------------------|
D|---------------------------------|
A|-----7-------5-7-----8-----------|
E|-0-0---0-5-7-----0-0---0-0-5-0-3-|

G|-------------------------------------|
D|-------------------------------------|
A|-------------------------------------|
E|-0-3-0-2-0-1-0-6-0-5-0-3-0-3-0-2-0-1-|



Last Verse
G|------------------------------------|
D|------------------------------------|
A|----------------------------2---1---|X4
E|0--0--00-00-0--00-00-0-0--0---3---2-|


Last Chorus
G|----------------------------|
D|----------------------------|
A|---7----5-6-7---7-----------|X4
E|-0---0--------0---0---5-0-3-|


Outro:
G|------------------------------|
D|------------------------------|X3
A|------------------------------|
E|-2--2--2-2-2-1--1-1-1-1-1-1-1-|

G|-------------------------------------------|
D|-------------------------------------------|
A|-------------------------------------------|
E|-2--2--2-2-2-1h2p1h2p1h2p1h2p1h2p1h2p1h2p1h|

Comments