White Zombie - Soul Crusher Chords & Tabs

 

Soul Crusher Chords & Tabs

White Zombie Chords & Tabs

Version: 4 Type: Tab 0 ratings
1 star 2 stars 3 stars 4 stars 5 stars
comments

Soul Crusher Tab

   
          Band:White Zombie
          Song:Soul Crusher
          By:Kenny Neumann
          
          [INTRO]  : (Fill_4x;C#)x2 ; (A;A#)x4 ; C# ; (Fill_4x;C#)x2 ; (A;A#)x4 
          
          e-||---------------{ Fill }---------------------[x4]|--{ C# }---[x2]| 
          b-||-----------------------------------------------||--------------|| 
          g-||*--7--8-----8--5-----------5--7----------------||-6--6--6--6--*|| 
          D-||*:-----------------7--0-----------5--6--------:||-6--6--6--6--*|| 
          A-||----------------------------------------8--5---||-4--4--4--4---|| 
          E-||-----------------------------------------------||--------------|| 
          
            -||--------{ A }-------------|----------{ A# }-------[x4]| 1st time: 
            -||--------------------------|--------------------------||  Play the C# 
            -||--2--------2--------2-----|-3--------3--------3------||  Riff and 
            -||:-2--------2--------2-----|-3--------3--------3-----:||  Repeat from 
            -||--0--0--0--0--0--0--0--0--|-1--1--1--1--1--1--1--1---||  Beginning 
            -||--------------------------|--------------------------|| 2d: 1st verse 
          
          [VERSE_1] : C D 
          ||---------------------------------|| 
          ||---------------------------------|| 
          ||*-----5-7-----7--7--7--7--7--7--*|| 
          ||*-----5-7-----7--7--7--7--7--7--*|| 
          ||------3/5-----5--5--5--5--5--5---|| 
          ||---------------------------------|| 
          
          [VERSE_2] 
          ||------------------------r-----------------------| 
          ||------------------------e-----------------------| 
          ||*-----------------------s-----------------------| 
          ||*--------------------9--t--9-----------------9--| 
          ||---------------------7-----7-----------------7--| 
          ||---0--0--0--0--------0-----0-----0--0--0-----0--| 
          
                      open fret is a grace note 
          -----------------------------------------------------||---------|| 
          -----------------------------------------------------||---------|| 
          ----------------------------------------------------*||---------|| 
          -----------------9----------------------------------*||--4------|| 
          -----------------7-----10--7-------------------------||--4~~~---|| 
          --0--0--0--0-----0------------10--7\6/7--10------7---||--2------|| 
          
          [BRIDGE] 
          ||------------------------------|------------------------------|- 
          ||*--------------------------5--|------------------------------|- 
          ||*--------------------------5--|---------------------------2--|- 
          ||---------------------------5--|---------------------------2--|- 
          ||---0-2---0-2---0-2---0-2---3--|---0-2---0-2---0-2---0-2---0--|- 
          
           --------------------------------|------------------------------------|| 
           --------------------------------|------------------------------------|| 
           --------------------------------|-----------------------------3--2--*|| 
           --------------------------5--5--|-----------------------------3--2--*|| 
           --------------------------5--5--|-----------------------------1--0---|| 
           --0-2---0-2---0-2---0-2---3--3--|---0-2---0-2---0-2---0-2------------|| 
          
          [VERSE_3] = V2 
          [VERSE_4] spoken 
          [VERSE_5] = V2  
          [VERSE_6] 
          [SOLO_1] 
          [VERSE_7] 
          [SOLO_2] 
          [VERSE_8] 
          [OUTRO] same as intro BUT one string lower 
          ||: fill_4x G# :|| G# G# .
[ Tab from: http://www.guitartabs.cc/tabs/w/white_zombie/soul_crusher_tab_ver_4.html ]
Comments