White Zombie - Planet Motherfucker Chords & Tabs

 

Planet Motherfucker Chords & Tabs

White Zombie Chords & Tabs

Version: 1 Type: Bass Tab

Planet Motherfucker Bass Tab

   
Band- White Zombie
Song- Planet Motherfucker

Tuning: Standard (E A D G)

The beginning may be open to interpretation, but I am comfortable with my take on it. 
free to simplify it if you wish.

Guitar opens, equal drums next, then bass enters agressively.

Play the accents at the end of triplets

G|-------------------------------------||
D|-------------------------------------||
A|-------------------------------------||
E|0-00-3--00-1--0021-0-00-3--00-1--0032||
       '     '    '       '     '    '
G|-------------------------------------||
D|-------------------------------------||(X2)
A|-------------------------------------||
E|0-00-3--00-1--0021-0-00-3--00-1------||
       '     '    '       '     'stop

verse.  Basically the same, but no stop at
         the end of phrase.
G|-------------------------------------||
D|-------------------------------------||
A|-------------------------------------||
E|0-00-3--00-1--0021-0-00-3--00-1--0032||
       '     '    '       '     '    '

G|-------------------------------------||
D|-------------------------------------||(X4)
A|-------------------------------------||
E|0-00-3--00-1--0021-0-00-3--00-1--0031||
       '     '    '       '     '    '

 Chorus,  A difference here in the stop feel.
  "She shouted...."
G|-------------------------------------||
D|-------------------------------------||(X2)
A|-------------------------------------||
E|0-00-3-00-1-00-2-0-0-00-3-00-1-00-2-0||
       '    '    '        '    '    '
Repeat Verse once, and chorus twice.
____________________________
G|------------------||
D|------------------||(X2)
A|------------------||
E|2-2------2-2------||
___________________________

             ~~~~~~
G|------------------||
D|------------------||
A|------------------||
E|-3---0---2--------||

G|------------------||
D|------------------||
A|-----1---0--------||
E|432-2---2---3--2--||

____________________________________________
1st time without the vocals.
G|-------------------------------------|| }
D|-------------------------------------|| }
A|-------------------------------------|| }
E|-2-2-2-2-2-2-2-2-2-2-2-2-2-2-2-2-2-2-|| }
[ Tab from: http://www.guitartabs.cc/tabs/w/white_zombie/planet_motherfucker_btab.html ]
G|-------------------------------------||-- }
D|--------------------------------5-------- }(X4)
A|-------------------------------------||-- }
E|2-2-2-2-2-2-2-2-2-2-2-2-2-2-2-2----1-||-- }

End the 4th time with this fill
G|-------------------------------------||
D|-------------------------------------||
A|-------------------------------------||
E|-2-2-2-[2-6---2-5-3-2]---------------||
____________________________________________

Drum fill
____________________________________________
A noticable difference in this verse.

G|-------------------------------------||
D|-------------------------------------||(X3)
A|-------------------------------------||
E|0-00-3--00-1--0021-0-00-3--00-1---5--||

4th time does not have the "A", just the
 regular verse phrasing...
G|-------------------------------------||
D|-------------------------------------||
A|-------------------------------------||
E|0-00-3--00-1--0021-0-00-3--00-1--0031||
_____________________________________________

Repeat Chorus twice, but end it with this fill.

"...Away."      ~~~~
G|------------------||
D|------------------||
A|------------------||
E|0-3-5----3-5-6----||
______________________________________

"Psychoholic Slag" part.

Drums...then,"Do you have to open graves..."

Rhythm
G|-------------------------------------||
D|-------------------------------------||(X2)
A|-------------------------------------||
E|-0-0----0-0--------0-0----0-0--------||

________________________________________
singing starts
verse
G|------------------------||
D|------------------------||
A|---1--0---------1/2p1-0-||
E|-00--0--0-3\2p0---------||

G|------------------------||
D|------------------------||
A|---1--0---------2/3p2-1-||
E|-00--0--0-3\2p0---------||

G|------------------------||
D|------------------------||
A|---1--0---------1/2p1-0-||
E|-00--0--0-3\2p0---------||

G|------------------------||
D|------------------------||(X2)
A|---1--0-------2---------||
E|-00--0--0-2-3---3-2-0-1-||
________________________________________

Rhythm
G|-------------------------------------||
D|-------------------------------------||(X2)
A|-------------------------------------||
E|-0-0----0-0--------0-0----0-0--------||
___________________________________________
Repeat verse,
Repeat rythm to fade.