White Zombie - I Am Legend Chords & Tabs

 

I Am Legend Chords & Tabs

White Zombie Chords & Tabs

Version: 1 Type: Tab 1 rating
1 star 2 stars 3 stars 4 stars 5 stars
comments

I Am Legend Tab

                            I AM LEGEND
                            White Zombie

I am sick of shitty versions of this song and maybe you are too if you're viewing this. So I did it myself. Here goes....

Intro
approx. 10 seconds of effects

clean w/ fingers
|------3----------3-----------|--------------2---------|
|---------(0)--------------0--|-----0----------------0-|
|--2-------0---------0-----0--|--------0--------0----0-|
|--------------0--------2-----|--1--------1-------1----|
|-----------------------------|------------------------|
|-(0)-------------------------|------------------------|

|----------------------0--|-------------0--------|----3------3-----3-|
|-------------3-------(3)-|-3-----3--------3-----|------0------0--(0)|
|----0-----------0--------|---(0)---0---------0--|--------2------2---|
|-------2-----------2-----|----2------2----------|--2----------------|
|-3--------3--------------|----------------------|-------------------|
|-------------------------|----------------------|-(0)---------------|


|----2------2-----0--|----------0-------0-|------------2-----------|
|------0------0---0--|----3-------3-----0-|----3----------3--------|
|--------0------0----|------3--------2----|-------4-------4--------|
|-0------------------|--------2-----------|----------4-------4-----|
|(0)-----------------|-3------------------|-2-------------------2/-|
|--------------------|--------------------|------------------------|

don't slide on repeat
|---------------------|-----------------|----------------------0--|
|*--------------------|-----------------|------------5------------|
|------7-----7-----7--|-----7-----7-----|----8-----------8--------|
|--------0-----0------|-0-----0-----0---|-------7----------7------|
|*-/5------5-----5----|---5-----5-----5-|-0-------0---------------|
|---------------------|-----------------|-------------------------|

|---------0------0-------|-------------------|-0-------0-------0--|
|-5--------------------*-|-------------------|--------------------|
|----8------8------9\7---|-----0-------0-----|----5-------5-------|
|-------7-----7----------|---4---4-------4---|------4-------4-----|
|----------------------*-|-3-------(3)-----3-|--------------------|
|------------------------|-------------------|--------------------|

|--------0---------0----0-|--------------0------|-----------------0-|
|----------------0--------|-0----0-------0------|---------0---------|
|-------------------------|-----------------9\--|-----0-----0-------|
|-----------8---------8---|----8----8-----------|---5----------5----|
|-(3)/7-------7-----------|-----------7---------|-3-----3-----------|
|-------------------------|---------------------|-------------------|

|---------------0-----|-----------------------|-----------0-----(0)-|
|--0----0------(0)----|--(0)-0-----0--0-------|-----------0------0--|
|-----0---0-----------|---0----------------0--|----0---------0------|
|------------------5--|-----------------9\----|\7----7---------7----|
|-(3)--------3----(3)/|-7-------7-------7\----|\5------5-------5----|
|---------------------|-----------------------|---------------------|

|-----------0-----------|-------------0--------|--------------------|
|-------------0-------0-|-------------0--------|-----------0--------|
|----0----------0-------|-------0-------0----0-|----2--------2------|
|------7-----------7----|-7\5-5------------5---|------1--------1----|
|-4------4--------------|-4\3------3-------3---|-2------2--------2--|
|-----------------------|----------------------|--------------------|

|-3----2----2-----------|------------------0-|------------0--------|
|-------------0---------|-----------3--------|-3----3--------------|
|---2-----------2-------|----3--------3------|--------2------2-----|
|---------1-------------|------2--------2----|----2-----2-------2--|
|------------------0--2-|-3------3-----------|---------------------|
|-----------------------|--------------------|---------------------|

|-------------------|-3---2----2------------|-------------------0-|
|-----------0-------|-------------0---------|-----------3---------|
|----2--------2-----|---2-----------2-------|----3--------3-------|
|------1--------1---|--------1--------------|------2--------2-----|
|-2------2--------2-|------------------0--2-|-3------3------------|
|-------------------|-----------------------|---------------------|

|-------------0-------|------------------0-|-------------0---(0)----|
|-3----3--------------|------------0-------|-0---0-------0----------|
|--------2-------2----|-----7--------7-----|--------7------7--------|
|----2-----2--------2-|-/6----6--------6---|---6-----------------7\-|
|---------------------|-/7------7----------|-----------7------------|
|---------------------|--------------------|------------------------|

|-------------3--------|------3--------------|-------------------|
|-----5---------5----5-|--------5----5-------|-----------0-------|
|-------3------------3-|-3-------------3-----|----2--------2-----|
|--5-------5-------5---|---5-------5---------|------1--------1---|
|-(3)------------------|------------------0--|-2------2--------2-|
|----------------------|---------------------|-------------------|

|-3----2----2-------------|--------------------|------0---------0---|
|-------------------------|------------------0-|-------------0------|
|----2---------2----------|----------9---------|-9------------------|
|---------1-------0-------|------------8-------|---8------8---------|
|-------------------------|--------------7-----|------------------7-|
|--------------------3--2-|--0-----------------|--------------------|

Drums enter here
|-------0------------|-0----0--------0----|---------------------|
|----0--------0------|----0---0-----------|-------------0-------|
|----------------9---|----------9---------|----9----------9-----|
|------------------8-|------------8-----8-|------8-----------8--|
|----------7---------|--------------------|---------7-----------|
|-0------------------|--------------------|-0-------------------|

Gradually begin to fade out                  Guitar 1 out
|-0---0--------------0-|-0-----0-------------|
|---0----0--0----------|-------------0-------|
|------------------9---|-----9---------------|
|----------------------|----------8-----8----|
|---------------7------|-------------------7-|
|----------------------|---------------------|


Guitar 2 (w/dist.)
|-----------------|-----------------|--------------------|
|-----------------|-----------------|--------------------|
|-----------------|-----------------|--------------------|
|-----------------|-----------------|-5h7----------------|
|-2-2-2-2-2-2-2-2-|-2-2-2-2-2-2-2-2-|-0----7--5--7-7-7-5-|
|-0-0-0-0-0-0-0-0-|-0-0-0-0-0-0-0-0-|-0----0--0--0-0-0-0-|

                               p.m.|   p.m...|  p.m...|
|---------------|------------------|--------------------------|
|---------------|------------------|--------------------------|
|---------------|------------------|--------------------------|
|---------------|------------------|--------------------------|
|-7--7-5--7-7-7-|-5h7--7-5-7-------|-5--------7--------/8--7--|
|-0--0-0--0-0-0-|-0----0-0-0---0-0-|-3--0--0--5--0--0--/6--5--|

Ist Verse
Rhy Fig.1
|---------------------|-----------------|-------------------|
|---------------------|-----------------|-------------------|
|---------------------|-----------------|-------------------|
|---------------------|-----------------|-------------------|
|-5h7--7--5--7-7-7--5-|--7-7--5--7-7-7--|-5h7--7--5-7-------|
|-0----0--0--0-0-0--0-|--0-0--0--0-0-0--|-0----0--0-0--0--0-|

|------------|--------------------|-----------------|---------------|
|------------|--------------------|-----------------|---------------|
|------------|--------------------|-----------------|---------------|
|------------|--------------------|-----------------|---------------|
|--10\\7-----|-5h7--7-5-7--7-7--5-|--7-7--5--7--7-7-|-5h7-7-5-7-----|
|---8\\5-----|-0----0-0-0--0-0--0-|--0-0--0--0--0-0-|-0---0-0-0-0-0-|

    p.m...|  p.m..|
|-----------------------|-------------------|---------------|
|-----------------------|-------------------|---------------|
|-----------------------|-------------------|---------------|
|-----------------------|-------------------|---------------|
|-5--------7------/8--7-|-5h7-7--5--7-7-7-5-|-7-7--5-7--7-7-|
|-3--0--0--5-0--0-/6--5-|-0---0--0--0-0-0-0-|-0-0--0-0--0-0-|

                 (end Rhy Fig. 1)
|--------------------|----------|---------------------|
|--------------------|----------|---------------------|
|--------------------|----------|---------------------|
|--------------------|----------|---------------------|
|-5h7--7--5--7-------|--10\\7---|-2--3-2-----3-4--2-4-|
|-0----0--0--0--0--0-|---8\\5---|-0--1-0--0--1-2--0-2-|
 
           1/2
|--------------------|--------------------|-----------------|
|--------------------|--------------------|-----------------|
|---------4br(4)-----|--------------------|-----------------|
|---------4br(4)--2--|--------------------|-----------------|
|--2-4-2--2br(2)--0--|-2--3-4----3-4--2-4-|-----------------|
|--0-2-0-------------|-0--1-2-0--1-2--0-2-|--3-2-1-0-1-2-3--|

                               1/2
|--------------------|------------------|---------------------------|
|--------------------|------------------|---------------------------|
|--------------------|--------4br(4)----|---------------------------|
|--------------------|--------4br(4)--2-|---------------------------|
|-2--3-4----3-4--2-4-|--2-4-2-2br(2)--0-|-2--3-4----3-4----3-4--2-4-|
|-0--1-2-0--1-2--0-2-|--0--2-0----------|-0--1-2-0--1-2-0--1-2--0-2-|

              ~~~~  
|------------------|
|------------------|
|------------------|
|------------------|
|---4----4----5----|
|-0-2--0-2--0-3----|

Chorus                          1/2
Rhy Fig. 2
|--------------------|-------------------|--------------------|
|--------------------|---------4br(4)----|--------------------|
|--------------------|---------4br(4)----|--------------------|
|--------------------|---------4br(4)--2-|--------------------|
|-2--3-4----3-4--2-4-|-2-4--2--2br(2)--0-|-2--3-4----3-4--2-4-|
|-0--1-2-0--1-2--0-2-|-0-2--0------------|-0--1-2-0--1-2--0-2-|

                                                 1/2
|----------------|--------------------|--------------------|
|----------------|--------------------|---------4br(4)-----|
|----------------|--------------------|---------4br(4)-----|
|----------------|--------------------|---------4br(4)--2--|
|----------------|-2--3-4----3-4--2-4-|-2-4--2--2br(2)--0--|
|--3-2-1-0-1-2-3-|-0--1-2-0--1-2--0-2-|-0-2--0-------------|

                         p.m..|  p.m...| (end Rhy Fig. 2)
|--------------------|-----------------------|
|--------------------|-----------------------|
|--------------------|-----------------------|
|--------------------|-----------------------|
|-2--3-4----3/4------|-5-------7-------/8--7-|
|-0--1-2--0-1/2-0--0-|-3--0--0-5--0--0-/6--5-|

2nd Verse
w/ Rhy Fig. 1

Chorus
w/ Rhy Fig. 2
                                                 ~~~~~      ~~~~
|-------------|------------|---------------|--------------------|
|-------------|------------|---------------|--------------------|
|-------------|------------|---------------|--------------------|
|--2----------|---------3--|---------------|--------------------|
|--2----------|---------3--|-2-----2--5----|------------5-------|
|--0----------|---------1--|-0-----0--3----|-5-6-7--------7-6---|

|-------------|------------|---------------|--------------------|
|-------------|------------|---------------|--------------------|
|-------------|------------|---------------|--------------------|
|--2----------|---------3--|-3-------------|--------------------|
|--2----------|---------3--|-3-----2--5----|------------5-------|
|--0----------|---------1--|-0-----0--3----|-5-6-7--------7-6---|

3rd Verse
|-------------------|-------------------|-----------------|
|-*-----------------|-------------------|-----------------|
|-------------------|-------------------|-----------------|
|---9-------9-------|-9-----------------|-9-------9-------|
|-*-7-------7-------|-7-------5--7--8\7-|-7-------7-------|
|---0-0-0-0-0-0-0-0-|-0-0-0-0-3--5--6\5-|-0-0-0-0-0-0-0-0-|

|-------------------|-----------------|-------------------|
|-------------------|-----------------|-------------------|
|-------------------|-----------------|-------------------|
|-9-----------------|-9-------9-------|-9-----------------|
|-7--------8\7--5/7-|-7-------7-------|-7-------5--7--8\7-|
|-0-0-0-0--6\5--3/5-|-0-0-0-0-0-0-0-0-|-0-0-0-0-3--5--6\5-|

                        ~~~        ~~~
|-----------------|----------------------|
|-----------------|--------------------*-|
|-----------------|----------------------|
|-9-------9-------|-(9)-----(9)----------|
|-7-------7-------|--7--8----7--8--8---*-|
|-0-0-0-0-0-0-0-0-|--0--6----0--6--6-----|
[ Tab from: http://www.guitartabs.cc/tabs/w/white_zombie/i_am_legend_tab.html ]
3rd Chorus                             1/2
|---------------------|-------------------------|-------------------|
|---------------------|---------------4br(4)----|-------------------|
|---------------------|---------------4br(4)----|-------------------|
|---------------------|---------------4br(4)--2-|-------------------|
|-2--3-4----3-4--2--4-|-(4)--2--4--2--2br(2)--0-|-2--3-4----3-4-2-4-|
|-0--1-2--0-1-2--0--2-|-(2)--0--2--0------------|-0--1-2-0--1-2-0-2-|

                                                 1/2
|-----------|----------------------|-----------------------|
|-----------|----------------------|------------4br(4)-----|
|-----------|----------------------|------------4br(4)-----|
|-----------|----------------------|------------4br(4)--2--|
|------5----|-2--3-4-----3-4--2--4-|-4--2-4--2--2br(2)--0--|
|------3----|-0--1-2--0--1-2--0--2-|-2--0-2--0-------------|


|----------------------|----------------|
|----------------------|----------------|
|----------------------|----------------|
|----------------------|----------------|
|-2--3-4-----3/4-------|--8-----8---5---|
|-0--1-2--2--1/2--0--0-|--6-----6---3---|

Outro Guitar Solo
Gtr.2
     hold bend
     full-----|            full         full    full   
|--------------------------|----12------------------------|
|------15------------------|--15---15------------------15-|
|--14b------14----------14b|----------14b-r(14)-14b-------|
|--------------------------|------------------------------|
|--------------------------|------------------------------|
|--------------------------|------------------------------|
|
|
Gtr.1
|--------------------------|------------------------------|
|--------------------------|------------------------------|
|--------------------------|------------------------------|
|--------------------------|------------------------------|
|---5h7-----7--5--7-7-7--5-|---7-7--5--7----7---7---------|
|---0-------0--0--0-0-0--0-|---0-0--0--0----0---0---------|


Gtr.2       1/2    ~~~~
|--------------------------|----------------------|
|------14-12b--------------|----------------------|
|------14-12b------12------|----------------------|
|-14------------14-----14\-|----------------------|
|--------------------------|----------------------|
|--------------------------|----------------------|
|
|
Gtr.3
|--------------------------|----------------------|
|--------------------------|----------------------|
|--------------------------|-7-9/11\\9-9-------12/|
|--------------------------|----------------------|
|--------------------------|-5-7/9 \\7-7-------10/|
|--------------------------|----------------------|
|
|
Gtr.1
|   p.m...|   p.m..|
|--------------------------|----------------------|
|--------------------------|----------------------|
|--------------------------|----------------------|
|--------------------------|----------------------|
|-5---------7--------/8--7-|-5h7-7--5----7-7-7-5--|
|-3--0---0--5--0--0--/6--5-|-0---0--0----0-0-0-0--|


Gtr.3          trem. pick................................
|------------------------|------------------------------|
|------------------------|------------------------------|
|\11--12--11\9--7---7----|-7--9--9--11--11--12--12--14--|
|------------------------|------------------------------|
|\9----0---9\7--5---5----|-5--7--7--9----9--10--10--12--|
|--------------///-------|------------------------------|
|
|
Gtr.1
|------------------------|------------------------------|
|------------------------|------------------------------|
|------------------------|------------------------------|
|------------------------|------------------------------|
|------7---7-5--7--7--7--|-5h7---7--5----7--------------|
|------0---0-0--0--0--0--|-0-----0--0----0-------0---0--|

Gtr.2                                 full
|------------------------------------------|
|-----------------------------------15b----|
|------------------------------------------|
|------------------------------------------|
|------------------------------------------|
|------------------------------------------|
|
|         
Gtr.3         ~~~          ~~~
|------------------------------------------|
|--------------12--------------------------|
|--------------12--------------------------|
|-12h14-14-14-------14--12h14--\-----------|
|------------------------------------------|
|------------------------------------------|
|
Gtr.1
|this is a long slow slide
|------------------------------------------|
|------------------------------------------|
|------------------------------------------|
|------------------------------------------|
|-10\---------\---------\7-----------------|
|--8\---------\---------\5-----------------|

Gtr.2      full        full           full full
|-----12-15b---12-12-15b---12-12-12-------------|
|-----------------------------------15b--15b----|
|-----------------------------------------------|
|-----------------------------------------------|
|-----------------------------------------------|
|-----------------------------------------------|
|
|
Gtr.1
|----------------------------------------------|
|----------------------------------------------|
|----------------------------------------------|
|----------------------------------------------|
|-5h7--7--5-----------7----7--------5----7-----|
|-0----0--0-----------0----0--------0----0-----|

                            pre-bend
Gtr.2      full   full      1/2
|--12-12------12----------------------|-----------------------------|
|--------15b----15b-(15)\--14pb-r(14)-|-12-14pb-r(14)------14-12----|
|--------------------------14pb-r(14)-|-12-14pb-r(14)-12---14-12----|
|-------------------------------------|-----------------14-------14-|
|-------------------------------------|-----------------------------|
|-------------------------------------|-----------------------------|
|
|
Gtr.1
|-------------------------------------|-----------------------------|
|-------------------------------------|-----------------------------|
|-------------------------------------|-----------------------------|
|-------------------------------------|-----------------------------|
|--7------7--5---7----7------7--------|--5h7--7---5---7-------------|
|--0------0--0---0----0------0--------|--0----0---0---0-----0----0--|

         pre-bend
Gtr.2     full
|---------------------------------|-----------------------|
|---------------------------------|-----------------------|
|-12------------------------------|-----------------------|
|----14---------------------------|-----------------------|
|-------12pb-r(12)-10-10----------|-----------------------|
|------------------------12\--0-0-|-----------------------|
|
|
Gtr.3                                         ~~~
|---------------------------------|-----------------------|
|---------------------------------|-----------------------|
|---------------------------------|-----------------------|
|---------------------------------|-----------5-----------|
|---------------------------------|---7--5-5--------7\----|
|---------------------------------|-0---------------------|
|
|
Gtr.1  
|    p.m...|      p.m....|
|---------------------------------|-----------------------|
|---------------------------------|-----------------------|
|---------------------------------|-----------------------|
|---------------------------------|-----------------------|
|--5-----------7----------/8--7---|-5h7--7-5--7--7--7--5--|
|--3--0---0----5---0---0--/6--5---|-0----0-0--0--0--0--0--|
    
                                           pre-bend
Gtr.3            ~~~                full   full ~~~~~~~~
|-------------------------------|--------------------------------|
|-------------------------------|------15------------------------|
|----------------12----------12-|-14b-----14pb--12---------------|
|-----14--12-14----------14-----|-------------------------14\----|
|-------------------------------|--------------------------------|
|-12----------------------------|--------------------------------|
|
|
Gtr.1
|-------------------------------|--------------------------------|
|-------------------------------|--------------------------------|
|-------------------------------|--------------------------------|
|-------------------------------|--------------------------------|
|------7---7--5---7---7---7-----|---5h7----7----5--7-------------|
|------0---0--0---0---0---0-----|---0------0----0--0--------0--0-|


Gtr.2
   full    full........|      full    full........|
|--------------------------|--------------------------|
|---5--------5-----5---5---|---5--------5-----5---5---|
|-7b------7pb---7pb-7pb----|-7b------7pb---7pb-7pb----|
|--------------------------|--------------------------|
|--------------------------|--------------------------|
|--------------------------|--------------------------|
|
Gtr.1
|   p.m...|  p.m...|            p.m...| p.m...|
|--------------------------|--------------------------|
|--------------------------|--------------------------|
|--------------------------|--------------------------|
|--------------------------|--------------------------|
|-5--------7--------/8--7--|-5--------7--------/8--7--|
|-3--0--0--5--0--0--/6--5--|-3--0--0--5--0--0--/6--5--|


Gtr.2
    hold bend.........................|
    full
|----------------------------------------|----12----12----12--12--|
|-----11----11----11----11------11--11---|-15b----15----15--15----|
|-13b----13----13----13-------13--13-----|------------------------|
|----------------------------------------|------------------------|
|----------------------------------------|------------------------|
|----------------------------------------|------------------------|
|
|
Gtr.1                                        p.m..| p.m..|
|----------------------------------------|-----------------------|
|----------------------------------------|-----------------------|
|----------------------------------------|-----------------------|
|----------------------------------------|-----------------------|
|-----5-------------------7------------8-|--5------7-----/8---7--|
|-----3-----0---------0---3---0-----0--6-|--3-0-0--5-0-0-/6---5--|

Gtr.2
    hold bend.................|        hold bend............|
    full                               full
|----12-------12--------12--12------|----12-----12----12--12-----|
|-15b------15---------15--15--------|-15b----15-----15--15-------|
|-----------------------------------|----------------------------|
|-----------------------------------|----------------------------|
|-----------------------------------|----------------------------|
|-----------------------------------|----------------------------|
|
Gtr.3       *trem. pick on 15 only each time   
|            hold bend............|            hold bend.........|
|  full      full                              full
|----15------*15--------15--15--15--|----15----*15----15--15--15-|
|-18b------18b///-----18--18--18----|-18-----18b///-18--18--18---|
|-----------------------------------|----------------------------|
|-----------------------------------|----------------------------|
|-----------------------------------|----------------------------|
|-----------------------------------|----------------------------|
|
Gtr.1
|   p.m.....|     p.m...|                p.m...|   p.m...|
|-----------------------------------|----------------------------|
|-----------------------------------|----------------------------|
|-----------------------------------|----------------------------|
|-----------------------------------|----------------------------|
|-5------------7----------/8-----7--|--5--------7---------/8---7-|
|-3--0----0----5---0---0--/6-----5--|--3--0---0-5---0--0--/6---5-|

Gtr.2     dive w/ bar
               ~~~~~~
|--------------12--------|--------------|----------|-------------|
|--5------(5)\--------12-|--------12p0--|----------|-------------|
|------------------------|-12-12--------|----------|-------------|
|------------------------|--------------|----------|-------------|
|------------------------|--------------|----------|-------------|
|------------------------|--------------|----------|-------------|
|
Gtr.3
| w/ ad lib shit
|------------------------|--------------|----------|-------------|
|------------------------|--------------|----------|-------------|
|------------------------|--------------|----------|-------------|
|------------------------|--------------|----------|-------------|
|------------------------|--------------|----------|-------------|
|------------------------|--------------|----------|-------------|
|
Gtr.1
|  trem. pick......................................|
|------------------------|--------------|----------|-------------|
|------------------------|--------------|----------|-------------|
|------------------------|--------------|----------|-------------|
|--9---------------------|-9------------|--9-------|--9\---------|
|--7---------------------|-7------------|--7-------|--7\---------|
|--0---------------------|-0------------|--0-------|--0----------|
  ///                     ///             ///

Well there's I Am Legend. Enjoy the shit.
If anyone don't know what to make of the symbols I used read this:

h     hammer on
p     pull off
/     slide
//    slide and pick note slid to
///   tremolo pick
b     bend the bitch
pb    pre-bend
r     release bent note
~~~   vibrato

I think that's it. If anyone wants other White Zombie, Pantera, Metallica, Megadeth, some Anthrax, Stevie Ray, Hendrix, or other heavy shit give me a shout at panterarocks42@hotmail.com and I'll send you a kick ass tab. Not some shit tab that some no talent ass clown tried to figure out himself.

        Wog


Comments