White Zombie - Creature Of The Wheel Chords & Tabs

 

Creature Of The Wheel Chords & Tabs

White Zombie Chords & Tabs

Version: 1 Type: Bass Tab

Creature Of The Wheel Bass Tab

Band- White Zombie
Song- Creature Of The Wheel

--------------------|
--------------------|
--------------------|x2
-2-2-2-2-2----------|

----------------------------|
----------------------------|
----------------------------|x3
-1--0--1--0--1--0---1--0----|

----------------------------|
----------------------------|
----------------------------|
-1-0--1--0------------------|

---------|
---------|
-1-------|x2
---------|
hold note
[ Tab from: http://www.guitartabs.cc/tabs/w/white_zombie/creature_of_the_wheel_btab.html ]
----------------------------|
----------------------------|
----------------------------|
-1-0-1-0-1-0-1-0------------|

----------------------------|
----------------------------|
----------------------------|
-1--0--1--0---2-2-2-2-2-----|

----------------------------|
----------------------------|
-0--------------------1-----|x4
----0---3---0---0---0-------|

----------------------------|
----------------------------|
---0------------1-----------|x4
------0--3---0--------------|