White Zombie - Black Sunshine Chords & Tabs

 

Black Sunshine Chords & Tabs

White Zombie Chords & Tabs

Version: 1 Type: Bass Tab 0 ratings
1 star 2 stars 3 stars 4 stars 5 stars
comments

Black Sunshine Bass Tab

   
From: Slaine@chameleon.alt.za (Slaine)
Subject: Bass tab for White Zombie's Black Sunshine


From: Slaine@chameleon.alt.za


               Black Sunshine - White Zombie
               Bass Tab
               Help got from Guitar School Magazine
               Transcribed by Michael DuClos

   Notation:
   ---------

   h = hammer-on
   \ = slide down (towards tuning knobs)
   

   Intro
   Freely
=125

 & 1st & 2nd Verses
   1.Move me in...
   2.Cry a river...
                                  Gripping the wheel...
   Em    (Play 8 times)           (Play 8 times) or as required.
--|------------------------|-----------------------|--
--|------------------------|-----------------------|--
--|------------------------|-----------------------|--
--|0-3-5-0-3-5-0-3-5-0-6-5-|0-3-5-0-3-5-0-3-5-0-6-5|--

   1st and 2nd Choruses
   Sweet'n the ride...
--|------------------------|-----------------------|--
--|--------------------5---|--------------------5--|--
--|0-3-5-0-5-6-0-5-6-7---6-|0-3-5-0-5-6-0-5-6-7--6-|--
--|------------------------|-----------------------|--

--|------------------------|-----------------------|--
--|--------------------5---|-----------------------|--
--|0-3-5-0-5-6-0-5-6-7---0-|-0-------------1-2-3-4-|--
--|------------------------|-----------------------|--

   1st Guitar Solo

--|------------------------|-----------------------|--
--|------------------------|-----------------------|--
--|7--7--7--7-7-7-7-7--7--7|5----------------1--2--|--
--|------------------------|--0--0--0--0--0--------|--


--|------------------------|-----------------------|--
--|------------------------|-----------------------|--
--|7--7--5--7-7-7-7-7--7--7|5h7--7--7--------------|--
--|------------------------|-------------(0)--2--3-|--


--|------------------------|-----------------------|--
--|------------------------|-----------------------|--
--|7--7--5--7-7-7-7-7--7--7|5h7--7--7----7---------|--
--|------------------------|----------------6--7---|--

--|------------------------|-----------------------|--
--|------------------------|-----------------------|--
--|7--7--5--7--7--7--7--7--|5h7--7--7--7-----------|--
--|------------------------|----------------0--2--3|--


--|------------------------|-----------------------|--
--|------------------------|-----------------------|--
--|7--7--5-(7)7-7--7-7-7--7|5h7--7--7----7---------|--
--|------------------------|----------------6--7---|--


--|------------------------|-----------------------|--
--|------------------------|-----------------------|--
--|7--7--5--7-7-7--7-7-----|-----------------------|--
--|--------------------0--0|0--0--0--0----0--2--3--|--


--|------------------------|-----------------------|--
--|------------------------|-----------------------|--
--|7--7--5-(7)7-7--7-7-7--7|5h7--7--7----7---------|--
--|------------------------|----------------6--7---|--


--|------------------------|-----------------------|--
--|------------------------|-----------------------|--
--|7--7--5--7-7-7--7-7-7--7|5h7--7--7--------------|--
--|------------------------|-------------0--2--3---|--

   3rd & 4th Verses

    3. Slide into...
    4. To the devil...
[ Tab from: http://www.guitartabs.cc/tabs/w/white_zombie/black_sunshine_btab.html ]
--|------------------------|-----------------------|--
--|------------------------|-----------------------|--
--|------------------------|-----------------------|--
--|0--0--0--0--0--0--0--0--|0--0--0--0--0-0-0-0--6-|--

--|------------------------|-----------------------|--
--|------------------------|-----------------------|--
--|------------------------|-----------------------|--
--|0--0--0--0--0--0--0--0--|6\0----6\0--0--6-------|--


   2nd Guitar Solo

--|------------------------|-----------------------|--
--|------------------------|-----------------------|--
--|------------7-7-7-7-7---|5----------------------|--
--|0--0--0--0--------------|---0--0--0----0--6--7--|--

--|------------------------|-----------------------|--
--|------------------------|-----------------------|--
--|7--7--5--7-7-7-7-7-7-7--|5h7--7--7--------------|--
--|------------------------|-------------0--2--3---|--

--|------------------------|-----------------------|--
--|------------------------|-----------------------|--
--|7--7--5--7-7-7-7-7-7-7--|5----------------------|--
--|------------------------|---0--0--0----0--6--7--|--

--|------------------------|-----------------------|--
--|------------------------|-----------------------|--
--|7--7--5--7-7-7-7-7--7--7|5h7--7--7--------------|--
--|------------------------|-------------0--2--3---|--

   3rd Chorus/5th Verse     3rd Guitar Solo
    Sweet'n the ride...

--|------------------------|-----------------------|--
--|------------------------|--------------------5--|--
--|------------------------|0-3-5-0-5-6-0-5-6-7---6|--
--|0-3-5-0-3-5-0-3-5-0-6-5-|-----------------------|--

   (Half-time feel)
   
--|------------------------|-----------------------|--
--|------------------------|-----------------------|--
--|------------------------|-----------------------|--
--|--0-----------8----7----|-1---0----------8----7-|--

   Outro
    Finally...

--|------------------------|-----------------------|--
--|------------------------|-----------------------|--
--|------------------------|------------------2----|--
--|0--0--0--0--0--0--0--0--|0--0--0--0--0--1-----1-|--

--|------------------------|-----------------------|--
--|------------------------|-----------------------|--
--|------------------------|------2--------3-----4-|--
--|0--0--0--0--0--0--0--0--|0--1-----1--2-----3----|--

--|------------------------|-----------------------|--
--|------------------------|-----------------------|--
--|------------------------|------------------2----|--
--|0--0--0--0--0--0--0--0--|0--0--0--0--0--1-----1-|--

--|------------------------|-----------------------|--
--|------------------------|-----------------------|--
--|------------------------|-----------------------|--
--|0--0--0--0--0--0--0--0--|--3-----------------1--|--

--|------------------------|-----------------------|--
--|-----3--------2---------|-----------------------|--
--|--------2--------1------|-----------------------|--
--|0----------0--------0--1|--0--------------------|--

                The End...

Typed by Nick Antonis - Slaine@chameleon.alt.za
                        nickantonis@gschool.alt.za

Hope you injoy it!!!!


| FidoNet:  Slaine 5:7102/129
| Internet: Slaine@chameleon.alt.za
|
| Standard disclaimer: The views of this user are strictly his own.
| From Chameleon BBS   +27-21-462-4580 or +27-21-461-0140



Comments