White Stripes - You've Got Her In Your Pocket Chords & Tabs

 

You've Got Her In Your Pocket Chords & Tabs

White Stripes Chords & Tabs

Version: 2 Type: Tab 0 ratings
1 star 2 stars 3 stars 4 stars 5 stars
comments

You've Got Her In Your Pocket Tab

   
#----------------------------------PLEASE NOTE---------------------------------#
#This file is the author's own work and represents their interpretation of the #
#song. You may only use this file for private study, scholarship, or research. #
#------------------------------------------------------------------------------#

************** You've Got Her In Your Pocket **************
**************       The White Stripes       **************


This is my first proper tab.  I worked it all out by myself.  I think it is a decent
version and it sounds right to me when I play it.  Go and check out the album 
"Elephant" now!


INTRO

          DG  C      G

----------2--------------------------------------------------------------
-------3-----3-----3------------0----------------------------------------
----2-----------2------------0-----0-----0--------0-----------0----------
-0------------------------0-----------0--------2-----2-----0-----0-------
--------------------------------------------3-----------3----------------
-----------------------3-------------------------------------------------


   A

---------------------------------   (Notes in brackets are hardly audible
----------2h3--------------------    and played quickly)
-------2-------(2)-------(2)-----
----2---------------(2)----------
-0-------------------------------
---------------------------------


          DG  C  G
[ Tab from: http://www.guitartabs.cc/tabs/w/white_stripes/youve_got_her_in_your_pocket_tab_ver_2.html ]
----------2----------------------------------------------------------
-------3-----3-----3------------0------------------------------------
----2-----------2------------0-----0-----0--------0--------0---------
-0------------------------0-----------0--------2--------0------------
--------------------------------------------3--------3---------------
-----------------------3---------------------------------------------


           A

---------------------------------    (Notes in brackets are hardly audible
----------2h3--------------------     and played quickly)
-------2-------(2)-------(2)-----   
----2---------------(2)----------
-0-------------------------------
---------------------------------


VERSE

         DG  C      G

----------2--------------------------------------------------------------
-------3-----3-----3------------0----------------------------------------
----2-----------2------------0-----0-----0--------0-----------0----------
-0------------------------0-----------0--------2-----2*----0-----0*------
--------------------------------------------3-----------3----------------
-----------------------3-------------------------------------------------

        You've...      pocket,     and...   no--------  way------- 
    

   A

---------------------------------   (Notes with * are not played second time
------------2*-------------------    through - Go from the open 5th string
--------2*------2*-----2*--------    note straight to strumming A)
----2*-------------2*------------         
-0-------------------------------
---------------------------------

 out----- now  








Send comments and complaints (or even thanks) to magictom123@yahoo.com


Enjoy!

Comments