White Stripes - Whos To Say Chords & Tabs

 

Whos To Say Chords & Tabs

White Stripes Chords & Tabs

Version: 1 Type: Tab 0 ratings
1 star 2 stars 3 stars 4 stars 5 stars
comments

Whos To Say Tab

   
-------------------------------------------------------------------------------
		WHO'S TO SAY - The White Stripes
-------------------------------------------------------------------------------
Tabbed by:Aaron Heinemann of AaronH.co.uk
Email:aaron@aaronh.co.uk

Tuning:Normal

This is a b-side from the single "I Just Dont Know What To Do With Myself...".
You can't find tabs for b-sides anywhere, so I made one. enjoy...

Fig.1:
e|---------------------------------------------------------------------------|
B|------2---------1---------2-----------1------3-----------------------------|
G|----2---2-----0---0-----2---2-------0------2-------------------------------|
D|----------------------------------2------0---------------------------------|
A|--0---------3---------0----------------------------------------------------|
E|---------------------------------------------------------------------------|
    Who's to  say that   I'm unhappy...
[ Tab from: http://www.guitartabs.cc/tabs/w/white_stripes/whos_to_say_tab.html ]
Fig. 2:
e|---------------------------------------------------------------------------|
B|--2--2------1--1------2--2------------1------3-----------------------------|
G|--2--2------0--0------2--2----------0------2-------------------------------|
D|--2--2------2--2------2--2--------2------0---------------------------------|
A|--0--0------3--3------0--0-------------------------------------------------|
E|---------------------------------------------------------------------------|


Lyrics:
Who's to say that I'm unhappy,
'Cause I already smiled.
Sittin', hopin', dreamin', waitin',
For my ship to sail.

Who's to say this time I've wasted,
Someday won't get used?
Baby if you come around,
I'll start to get it through.

Who's To Say?
Who's To Say?

(fig.2)
(back to fig.1)

Who's to say that I'm obsessed,
With everything you do?
Just because it seems my schedule
Seems to shadow you?

Who's to say that a clean shave has
More fish in the sea?
I don't mind treading water,
'Cause you're the one for me.

You say that by now,
I Should know you'll never love me.
But who's to say that
What has never been will never be?
What has been will never be...

Who's to say in time i will,
Learn how to relax?
You'd forget about my clammy hands
And my nervous laugh.

Who's to say the way you look at
Him is truely love?
Baby, you should realise,
I fit you like a glove.

You say that by now,
I Should know you'll never love me.
But who's to say that
What has never been will never be?
What has been will never be...

| /  slide up
| \  slide down
| h  hammer-on
| p  pull-off
| ~  vibrato
| +  harmonic
| x  Mute note
===============================================================================
Comments