White Stripes - When I Hear My Name Chords & Tabs

 

When I Hear My Name Chords & Tabs

White Stripes Chords & Tabs

Version: 2 Type: Tab 0 ratings
1 star 2 stars 3 stars 4 stars 5 stars
comments

When I Hear My Name Tab

hi people,this is my 1st tab but its good

--------------/   -----------------------------------------------------/
--------------/   -----------------------------------------------------/
--------------/x4 -----------------------------------------------------/
--2-2-2-2-2---/   --7-7-7-7-7---2-2-2-2-2---9-9-9-9-9-9-9-9-9-9-9-9-9--/
--2-2-2-2-2---/   --7-7-7-7-7---2-2-2-2-2---9-9-9-9-9-9-9-9-9-9-9-9-9--/
--0-0-0-0-0---/   --5-5-5-5-5---0-0-0-0-0---7-7-7-7-7-7-7-7-7-7-7-7-7--/

repeat but in between the Es goes like
[ Tab from: http://www.guitartabs.cc/tabs/w/white_stripes/when_i_hear_my_name_tab_ver_2.html ]
---------10--------------|
---10-12----12-10-8-10-8-|
-------------------------|
-------------------------|
-------------------------|
-------------------------|

then its

--------0---0--0-0-3-0---0---0--0-0-3-0----|
----------3----------------3---------------|
-------------------------------------------|repeat as necassery
-------------------------------------------|
-------------------------------------------|
--1h2p1--------------------------------1h2-|

then it goes

----------/
------3---/
--2-4---4-/
----------/
----------/
----------/

and then you repeat the first section
Comments