White Stripes - Were Going To Be Friends Chords & Tabs

 

Were Going To Be Friends Chords & Tabs

White Stripes Chords & Tabs

Version: 6 Type: Tab 0 ratings
1 star 2 stars 3 stars 4 stars 5 stars
comments

Were Going To Be Friends Tab

   
-------------------------------------------------------------------------------
			     We're going to be friends - The White Stripes
-------------------------------------------------------------------------------
Tabbed by: Tom knight
Email: tommytough@hotmail.com

Tuning: Standard

Verse 1
E|-------------------------------------------------------------------------|
B|----------------------0--------------0-------------0---------------------|
G|-----0------0-------------0----------------0---------------0-------------|
D|-------------------------------------------------------------------------|
A|--10-----10----10------10--10--------10--10-----10-----------------------|
E|-------------------------------------------------------------------------|

E|---------------------------------------------------------------------|
B|---0------------------0--------------0-----------------0-------------|
G|-------------0---------------0----------------0----------------------|
D|---------------------------------------------------------------------|
A|-10----10------10------10------10----10-------10---------------------|
E|---------------------------------------------------------------------|

E|-------------------------------------------------------------|
B|--------------0--------------0-------------------------------|
G|-----0---------------0---------------------------------------|
D|-------------------------------------------------------------|
A|-15-----15-----15-----15-------------------------------------|
E|-------------------------------------------------------------|


E|-------------------------------------------------------------|
B|------------------0----------------0-------------------------|
G|---------0---------------0-----------------------------------|
D|-------------------------------------------------------------|
A|----10------10------10-----10--------------------------------|
E|-------------------------------------------------------------|

Chorus
E|--------------------------------------------------------------|
B|-------------0-----------0-----------0---------0--------------|
G|-----0-----------0-------------0----------0-------------------|
D|-12----12---10----10------------------------------------------|
A|----------------------------10---10----10--10-----------------|
E|--------------------------------------------------------------|  x2

Verse 2
E|-------------------------------------------------------------------------|
B|-----0---------------0------------0---------------0----------------------|
G|-------------0---------------0--------------0-------------0--------------|
D|-------------------------------------------------------------------------|
A|--10-----10----10------10--10--------10--10-----10-----------------------|
E|-------------------------------------------------------------------------|

E|---------------------------------------------------------------------|
B|---0------------------0--------------0-----------------0-------------|
G|-------------0---------------0----------------0----------------------|
D|---------------------------------------------------------------------|
A|-10----10------10------10------10----10-------10---------------------|
E|---------------------------------------------------------------------|

E|-------------------------------------------------------------|
B|--------------0--------------0-------------------------------|
G|-----0---------------0---------------------------------------|
D|-------------------------------------------------------------|
A|-15-----15-----15-----15-------------------------------------|
E|-------------------------------------------------------------|

E|-------------------------------------------------------------|
B|------------------0----------------0-------------------------|
G|---------0---------------0-----------------------------------|
D|-------------------------------------------------------------|
A|----10------10------10-----10--------------------------------|
E|-------------------------------------------------------------|


Then Chorus
[ Tab from: http://www.guitartabs.cc/tabs/w/white_stripes/were_going_to_be_friends_tab_ver_6.html ]
Verse 3(See how the open notes on the B and G string have changed to verse 1 and 2)
E|-------------------------------------------------------------------------|
B|-------------0---------------0----------------0-------------0------------|
G|-----0--------------0-----------0-----------------0----------------------|
D|-------------------------------------------------------------------------|
A|--10-----10----10------10--10--------10--10-----10-----------------------|
E|-------------------------------------------------------------------------|

E|---------------------------------------------------------------------|
B|-------------0-----------------0---------------0---------------------|
G|---0-----------------0----------------0----------------0-------------|
D|---------------------------------------------------------------------|
A|-10----10------10------10------10----10-------10---------------------|
E|---------------------------------------------------------------------|

E|-------------------------------------------------------------|
B|-----0---------------0---------------------------------------|
G|-------------0---------------0-------------------------------|
D|-------------------------------------------------------------|
A|-15-----15-----15-----15-------------------------------------|
E|-------------------------------------------------------------|

Bridge
E|---------------------------------------------------------------|
B|----------0-----------0------------0---------0-----------------|
G|----0---------0--------------0---------0-----------------------|
D|---------------------------------------------------------------|
A|--15--15-15----15----10---10--1010----------------------------|
E|---------------------------------------------------------------|  x2

E|--------------------------------------------------------------|
B|--------------0-------------0-------------0------------0------|
G|-----0-------------0--------------0-------------0-------------|
D|--------------------------------------------------------------|
A|-17-----17----17-----17----14----14-----14---14---------------|
E|--------------------------------------------------------------| x1


Verse 4

E|-------------------------------------------------------------------------|
B|----------------------0--------------0-------------0---------------------|
G|-----0------0-------------0----------------0---------------0-------------|
D|-------------------------------------------------------------------------|
A|--10-----10----10------10--10--------10--10-----10-----------------------|
E|-------------------------------------------------------------------------|

E|---------------------------------------------------------------------|
B|---0------------------0--------------0-----------------0-------------|
G|-------------0---------------0----------------0----------------------|
D|---------------------------------------------------------------------|
A|-10----10------10------10------10----10-------10---------------------|
E|---------------------------------------------------------------------|


E|-------------------------------------------------------------|
B|--------------0--------------0-------------------------------|
G|-----0---------------0---------------------------------------|
D|-------------------------------------------------------------|
A|-15-----15-----15-----15-------------------------------------|
E|-------------------------------------------------------------|


E|-------------------------------------------------------------|
B|------------------0----------------0-------------------------|
G|---------0---------------0-----------------------------------|
D|-------------------------------------------------------------|
A|----10------10------10-----10--------------------------------|
E|-------------------------------------------------------------|


Then play chorus twice
And finish on this chord
E|----------------|
B|------0---------|
G|----0-----------|
D|---0------------|
A|-10-------------|
E|----------------|

-----------------------------------|


| /  slide up
| \  slide down
| h  hammer-on
| p  pull-off
| ~  vibrato
| +  harmonic
| x  Mute note
===============================================================================
Comments