White Stripes - Were Going To Be Friends Chords & Tabs

 

Were Going To Be Friends Chords & Tabs

White Stripes Chords & Tabs

Version: 3 Type: Tab 1 rating
1 star 2 stars 3 stars 4 stars 5 stars
comments

Were Going To Be Friends Tab

#----------------------------------PLEASE NOTE---------------------------------#
#This file is the author's own work and represents their interpretation of the #
#song. You may only use this file for private study, scholarship, or research. #
#------------------------------------------------------------------------------#

Artist: the White Stripes
Album: White Blood Cells
Song: We're Going to be Friends
tabbed by: Tom McKibbin (whitestrokes@hotmail.com)
This song is really sentimental and its one of my favourites from the album.

Intro

E|--3------------3------------3------------ 3------------3------------3------------3------------3------------------------|
A|-----------------------------------------------------------------------------------------------------------------------|
D|-----------------------------------------------------------------------------------------------------------------------|
G|---------0------------0---------------------------0------------------------0-------------------------0-----------------|
B|----------------------------------- 0-----------------------------0---------------------0------------------------------|
e|-----------------------------------------------------------------------------------------------------------------------|

Verse

E|---3--------- 3------------3------------3------------3---------3----------3------------3---------------|------------------------------------------------|
A|-------------------------------------------------------------------------------------------------------|-3---------3---------3-----------3--------------| (verse continued
D|-------------------------------------------------------------------------------------------------------|------------------------------------------------|    below)
G|----------------------0--------------------------0---------------------0---------------------------0---|-----------------0-----------------------0------|              
B|--------0-------------------------0-------------------------0-----------------------0------------------|------1----------------------1------------------|              
e|-------------------------------------------------------------------------------------------------------|------------------------------------------------|             
[ Tab from: http://www.guitartabs.cc/tabs/w/white_stripes/were_going_to_be_friends_tab_ver_3.html ]
E|--3-----------3--------------3--------------3--------------|--------------------------|--------------------------|--3---------3-------------|
A|-----------------------------------------------------------|---5----------5-----------|--3----------3------------|--------------------------|
D|-----------------------------------------------------------|--------------------------|--------------------------|--------------------------|
G|----------------------0--------------------------------0---|--------------------------|--------------------------|-------------------0------|
B|-------0-----------------------------0---------------------|-------- 7-----------3----|--------1------------0----|-------0------------------|
e|- ---------------------------------------------------------|--------------------------|--------------------------|--------------------------|

Bridge

E|----------------------------------------------|---3------3------3------3---------|---------------------------------------|--3------3-------3-------3-------------|
A|---3--------3----------3----------3-----------|----------------------------------|--3-------3---------3--------3---------|---------------------------------------|
D|----------------------------------------------|----------------------------------|---------------------------------------|---------------------------------------| Continued below
G|--------------------0---------------------0---|--------------0---------------0---|-----------------0-----------------0---|---------------0-----------------0-----|
B|--------1---------------------1---------------|------0---------------0-----------|-------1------------------1------------|------0---------------0----------------|
e|----------------------------------------------|----------------------------------|---------------------------------------|---------------------------------------|

E|----------------------------------------------------------------------------------|----------------------------------------|----------------------------------------------|
A|--0---------0--------0---------0---------0-------0-------0--------0---------------|---3---------3---------3-------3--------|-5---------5----------5----------5------------|
D|----------------------------------------------------------------------------------|----------------------------------------|----------------------------------------------|
G|-----------------2------------------2------------------2-------------------2------|--------------------0----------------0--|----------------------------------------------|
B|--------2------------------2------------------2----------------2------------------|--------1-------------------1-----------|-------7---------3----------7-----------3-----|
e|----------------------------------------------------------------------------------|----------------------------------------|----------------------------------------------|
Comments