White Stripes - Theres No Home For You Here Chords & Tabs

 

Theres No Home For You Here Chords & Tabs

White Stripes Chords & Tabs

Version: 3 Type: Tab 0 ratings
1 star 2 stars 3 stars 4 stars 5 stars
comments

Theres No Home For You Here Tab

intro
e|-----------------------|
B|-2-----5--2--2---------|
G|-2--4--5--2--2--2--2---|
D|-2--5--5--2--2--2--2---|
A|-0--5--3--0--0---------|
E|----3-----------3b-3b--|

main, chorus and breakdown riff
e|------------------------------------|
B|-2--2-2-------5-5--5-5--2-2---------|
G|-2--2-2-------5-5--5-5--2-2--2------|
D|-2--2-2--5-5--5-5--5-5--2-2--2------|x3
A|-0--0-0--5-5--3-3--3-3--0-0---------|
E|---------3-3-----------------3b-3b--|
[ Tab from: http://www.guitartabs.cc/tabs/w/white_stripes/theres_no_home_for_you_here_tab_ver_3.html ]
e|-------------3------------3-3-3---|
B|-2--2-2-0----0---0-0--0h1-1-1-1---|
G|-2--2-2-0----0---0-0--0---0-0-0---|
D|-2--2-2-0----0---0-0--0h2---2-2---|
A|-0--0-0-0-------------0h3---3-3---|
E|--------0h3--3--------------------|

e|-----------------------|
B|-0-0--2--2-2-2---------|
G|-0-0--2--2-2-2--2--x---|
D|-0-0--2--2-2-2--2--x---|
A|------0--0-0-0---------|
E|----------------3------|

e|-------------3--3---0----3-3-3-3-3--------------|
B|-2--2-2-0--0-0--0---0--1-1-1-1-0-0-2--2-2-3-0-0-|
G|-2--2-2-0--0-0--0---0--0-0-0-0-0-0-2--2-2-2-0-0-|
D|-2--2-2-0--0-0--0------2---2-2-0-0-2--2-2-2-0-0-|
A|-0--0-0-0--------------3---3-3-3-3-0--0-0-------|
E|--------0----3--3--0------------------------3-3-|

soory i can't get the solo but if i work
it out i will postit so do not fear!

thanks
David
Comments