White Stripes - Theres No Home For You Here Chords & Tabs

 

Theres No Home For You Here Chords & Tabs

White Stripes Chords & Tabs

Version: 1 Type: Tab 0 ratings
1 star 2 stars 3 stars 4 stars 5 stars
comments

Theres No Home For You Here Tab

   
Intro
   A    G    C   A   
e--0----3----0---0---    ---------
b--2----3----1---2-2-    ---------
g--2----0----0---2-2-    ---------
d--2----0----2---2--- x2 ---------
a--0----2----3---0---    ---------
e-------3------------    --3b-3b--

Chorus
e--0--0----3-3----0-0--0-0----0-----------
b--2--2--2-3-3----1-1--1-1----2-2---------
g--2--2--2-0-0----0-0--0-0----2-2---------
d--2--2----0-0----2-2--2-2----2-----------
a--0--0----2-2----3-3--3-3----0-----------
e----------3-3---------------------3b-3b--

Verse pt1
e--0-|------------------------------------------
b--2-|------------------------x-x---------------
g--2-|--x----x----------------0-x---------------
d--2-|--2----2-------x-x-0----2-2-0----2-2------
a--0-|--0----0-0-----2-2-0----3-3------0-0------
e----|-------------2h3-3--------------------3b--
[ Tab from: http://www.guitartabs.cc/tabs/w/white_stripes/theres_no_home_for_you_here_tab.html ]
verse pt2
e----------------------------0------0--------------
b----------------------------0---------------------
g--------------------------------------------------
d--2------------x---0------2------2----------------
a--0--2-0-------2---0---3--3---0--0-2--2-0---------
e----------2h3--3-3-------------------------3b-3b--

Verse pt3
e--------------------------0-0----0-0--------------
b--------------------------1-0----2-2--------------
g--------------------------0------2-2--------------
d--2------------x---0------2------2-2--2-----------
a--0--2-0-------2---0---3--3---0--0-2--2-0---------
e----------2h3--3-3-------------------------3b-3b--

Bridge
e--2-2-2-2-2-2-2-2----0-0--0-0--
b--3-3-3-3-3-3-3-3----1-1--2-2--
g--2-2-2-2-2-2-2-2----0-0--2-2--
d--0-0-0-0-0-0-0-0----2-2--2-2--
a--0-0-0-0-0-0-0-0----3-3--0-0--
e-------------------------------

Bridge 2: just get alot of feed back.

Mini solo
e------------------------------
b------------------------------
g--12~-12~-12~-12~--14--9~-9~--
d------------------------------
a------------------------------
e------------------------------
Comments