White Stripes - The Nurse Chords & Tabs

 

The Nurse Chords & Tabs

White Stripes Chords & Tabs

Version: 1 Type: Tab 0 ratings
1 star 2 stars 3 stars 4 stars 5 stars
comments

The Nurse Tab

-------------------------------------------------------------------------------
			     The Nurse - The White Stripes
-------------------------------------------------------------------------------
Tabbed by: DetroitRockCity a.k.a Kyle Landgraf
Email: klstrider@comcast.net

Okay even though this song is actually played on a marimba and a piano my friend
and I have played a two guitar version.  It's all pretty straightforward and easy.

Tuning: Standard

Intro
e|-------------------------------------------------------------------|
B|-------------------------------------------------------------------|
G|-------------------------------------------------------------------|
D|-------------------------------------------------------------------|
A|-4-2-2/3/4/5/6/7/8/9/10/11/12/13/14-(basically as high as you can)-| not necessary
E|-------------------------------------------------------------------|

Guitar 1: Main Riff (the marimba)
e|-------------------------------------------|
B|-------------------------------------------|
G|-------------------------------------------|
D|-------------------------------------------|
A|-2--2-2-3-5-7--7-8-8-5-2--2-2-3-5--2-2-3-5-|
E|-------------------------------------------|

Guitar 2: Rhythm (the piano). Play at the point it shows.
e|-------------------------------------------|
B|-------------------------------------------|
G|-----------------------------2-------------|
D|-----------------------------2-2-----------|
A|------------------------2--2-0-2-2---------|
E|------------------------2--2---0-2---------|
[ Tab from: http://www.guitartabs.cc/tabs/w/white_stripes/the_nurse_tab.html ]
Guitar 2: Second variation of rhythm
e|-------------------------------------------|
B|-------------------------------------------|
G|-------------------------------------------|
D|-----------------------------2-2-----------|
A|------------------------2--2-2-2-2---------|
E|------------------------2--2-0-0-2---------|

Guitar 2: Third rhythm
e|-------------------------------------------|
B|-------------------------------------------|
G|-------------------------------------------|
D|---------------------------2---------------|
A|------------------------2--2-2-------------|
E|------------------------2--0-2-------------|

Guitar 1: second riff
e|--------------------------------------------------------------|
B|--------------------------------------------------------------|
G|--------------------------------------------------------------|
D|--------------------------------------------------------------|
A|--2-2-2-2--3-3-3-3--5-5-5-5--3-3-3-2-then go back to rhythm---|
E|--------------------------------------------------------------|

Guitar 1: "no I'm never, no I'm never, no I'm never gonna let you down"
e|------------------------------------------|
B|------------------------------------------|
G|------------------------------------------|
D|------------------------------------------| Guitar 2 just plays:  x x x x x x x
A|-2--2-2-3-5--5-7-7-7--2--2-2-3-5--5-7-7-7-|                       x x x x x x x
E|------------------------------------------|                       x x x x x x x

Guitar 2: solo
e|---4b-4b-4b-4b-hold------4b-4b-5b-hold-------------------------------------|
B|---------------------------------------------------------------------------|
G|---------------------------------------------------------------------------|
D|---------------------------------------------------------------------------|
A|---------------------------------------------------------------------------|
E|---------------------------------------------------------------------------|
Comments