White Stripes - The Hardest Button To Button Chords & Tabs

 

The Hardest Button To Button Chords & Tabs

White Stripes Chords & Tabs

Version: 8 Type: Tab 0 ratings
1 star 2 stars 3 stars 4 stars 5 stars
comments

The Hardest Button To Button Tab

   
=========================|================|
White Stripes            |Tab, and Lyrics |
Hardest Button To Button |================|
Elephant                 |
=====================================|
By Andrew Gyorkos and Marlon Chaplin |
=====================================|=====================================|
This is a revision of the hardest button to button version 4 done on November
18th by Andrew Gyorkos and Marlon Chaplin. The same transcribers as version 4.
There is no timing included and I've fixed all the guitar parts and corrected
some mistakes too.
===========================================================================|
If you can, replace the A string with a Bass string. Keep a constant beat
throughout the song too. If there are still mistakes please email me and I'll
fix them. Also thanks go to Paul Kendrick for a bit of help with this tab. For
timing, or anything else, look to the song for help. Other than that enjoy!
===========================================================================|

=========================================
Intro and Interlude during 1:36 to 1:44 | 
=========================================

A-|-0-0-0-0-0-0-0-0-0-0-0-0-0-0-0-0-|

=======
Part 1|
=======

e-|-----------------------------------------------------------|
B-|-----------------------------------------------------------|  
G-|---2---------5---------2---------5---------2---------5-----|
D-|-----2---------5---------2---------5---------2---------5---|
A-|-0-----0---3-----3---0-----0---3-----3---0-----0---3-----0-|
E-|-----------------------------------------------------------|


e-|-------------------|
B-|-------------------|
G-|---4---------7-----|
D-|-----4---------7---|
A-|-2-----2---5-----5-|
E-|-------------------|

=======
Part 2|
=======

e-|-------------------------------------------------|
B-|-------------------------------------------------|
G-|-22222/55555/22222/55555/22222/55555/44444/77777-|
D-|-22222/55555/22222/55555/22222/55555/44444/77777-|
A-|-00000/33333/00000/33333/00000/33333/22222/55555-|
E-|-------------------------------------------------|

=======
Part 3|
=======

e-|-----------------------------------------|
B-|-----------------------------------------|
G-|-2222-5555-2222-5555-2222-5555-4444-7777-|
D-|-2222-5555-2222-5555-2222-5555-4444-7777-|
A-|-0000-3333-0000-3333-0000-3333-2222-5555-|
E-|-----------------------------------------|

=======
Part 4|
=======

e-|-----------------------------------------------------------|
B-|-----------------------------------------------------------|
G-|---2---------5---------2---------5---------2---------5-----|
D-|-----2---------5---------2---------5---------2---------5---|
A-|-0-----0---3-----3---0-----0---3-----3---0-----0---3-----3-|
E-|-----------------------------------------------------------|

e-|-------------------|
B-|-------------------|
G-|---4---------3-----|
D-|-----4---------3---|
A-|-2-----2---1-----1-|
E-|-------------------|

=======
Part 5|
=======
[ Tab from: http://www.guitartabs.cc/tabs/w/white_stripes/the_hardest_button_to_button_tab_ver_8.html ]
e-|-------------------------------------------------|
B-|-------------------------------------------------|
G-|-22222/55555/22222/55555/22222/55555/44444/33333-|
D-|-22222/55555/22222/55555/22222/55555/44444/33333-|
A-|-00000/33333/00000/33333/00000/33333/22222/11111-|
E-|-------------------------------------------------|

=======
Part 6|
=======

e-|-----------------------------------------|
B-|-----------------------------------------|
G-|-2222-5555-2222-5555-2222-5555-2222-5555-|
D-|-2222-5555-2222-5555-2222-5555-2222-5555-|
A-|-0000-3333-0000-3333-0000-3333-0000-3333-|
E-|-----------------------------------------|

=======
Part 7|
=======

e-|-----------------------------------------|
B-|-----------------------------------------|
G-|-2222-5555-2222-5555-2222-5555-4444-3333-|
D-|-2222-5555-2222-5555-2222-5555-4444-3333-|
A-|-0000-3333-0000-3333-0000-3333-2222-1111-|
E-|-----------------------------------------|

=======
Part 8|
=======

e-|-------------------------------------------------------------|
B-|-------------------------------------------------------------|
G-|-2222-----------5555-----------2222-----------5555-----------|
D-|-2222-----------5555-----------2222-----------5555-----------|
A-|-0000-0-0-0-0-0-3333-3-3-3-3-3-0000-0-0-0-0-0-3333-3-3-3-3-3-|
E-|-------------------------------------------------------------|

=======
Part 9|
=======

e-|---------------------------------|
B-|---------------------------------|
G-|2222---5555---2222---5555---2222-|
D-|2222---5555---2222---5555---2222-|
A-|0000---3333---0000---3333---0000-|
E-|---------------------------------|

============================================================================

Order of Play - Intro,1,1,1,1,2,3,Intro,1,4,5,6,7,8,9

========
Lyrics |
========

Verse 1

we started living in an old house
my ma gave birth and we were checking it out
it was a baby boy
so we bought him a toy
it was a ray gun
and it was 1981

we named him 'Baby'
he had a toothache
he started crying
it sounded like an earthquake
it didn't last long
because I stopped him
i grabbed a rag doll
and stuck some little pins in it

Verse 2

Now we're a family
and we're alright now
we got money and a little place
to fight now
we don't know you
and we don't owe you
but if you see us around
I got something else to show you

Verse 3

well its easy when you don't know 
better
you think it's sleazy? 
then put it in a short letter
we keep warm
but there's just something wrong 
when you
just feel that you're the hardest little button to
button 

Verse 4

I had opinions
that didn't matter
I had a brain 
that felt like pancake batter
I got a backyard
with nothing in it
except a stick
A dog
and a box with something in it 

the hardest button to button (x12)

============================================================================
 Please email me at abgyorkos@rogers.com to let me know how i did! Enjoy!
============================================================================
Comments