White Stripes - The Hardest Button To Button Chords & Tabs

 

The Hardest Button To Button Chords & Tabs

White Stripes Chords & Tabs

Version: 4 Type: Tab 5 ratings
1 star 2 stars 3 stars 4 stars 5 stars
comments

The Hardest Button To Button Tab

Song: The Hardest Button to Button
Artist: White Stripes
Album: Elephant
Tabbed by: johnny hernandez (whatever7217@aol.com)


INTRO 1

-----------------------------------------------------------------------------------------------
-----------------------------------------------------------------------------------------------
----------------2-----------------5-------------------2--------------------------5-----------
-----------2--------2---------5-------5----------2--------2----------------5----------5----
------0------------------3------------------0------------------------3-----------------------
-----------------------------------------------------------------------------------------------

----------------------------------------------------------------------------------------------
----------------------------------------------------------------------------------------------
-----------2-------------------5------------------------4-----------------7------------------
------2--------2---------5---------5------------4-----------4---------7------7----------------
--0------------------3--------------------2------------------------5--------------------------
----------------------------------------------------------------------------------------------

INTRO 2
[ Tab from: http://www.guitartabs.cc/tabs/w/white_stripes/the_hardest_button_to_button_tab_ver_4.html ]
----------------------------------------------------------------------------------------
----------------------------------------------------------------------------------------
----------------------------------------------------------------------------------------
----7-----7-----7-----7-------10------10----10----10------------------------------------		Play
----7-----7-----7-----7-------10------10----10----10------------------------------------		this 3
----5-----5-----5-----5-------8--------8-----8-----8------------------------------------		times

and then
-----------------------------------------------------------------------------------------
-----------------------------------------------------------------------------------------
-----------------------------------------------------------------------------------------
------9-----9------9-----9--------12---12----12----12------------------------------------
------9-----9------9-----9--------12---12----12----12------------------------------------
------7-----7------7-----7--------10---10----10----10------------------------------------

CHORUS

-------------------------------------------------------------------------------------
-------------------------------------------------------------------------------------		play this	
-------------------------------------------------------------------------------------		3 times
---7-----7-----7----7-------10-----10----10----10------------------------------------
---7-----7-----7----7-------10-----10----10----10------------------------------------
---5-----5-----5----5--------8------8-----8-----8------------------------------------

and then
---------------------------------------------------------------------------------------
---------------------------------------------------------------------------------------
---------------------------------------------------------------------------------------
-----9-----9----9----9------12-----12-----12------12-----------------------------------
-----9-----9----9----9------12-----12-----12------12-----------------------------------
-----7-----7----7----7------10-----10-----10------10-----------------------------------

OUTRO - play chorus
Comments