White Stripes - The Hardest Button To Button Chords & Tabs

 

The Hardest Button To Button Chords & Tabs

White Stripes Chords & Tabs

Version: 3 Type: Tab 2 ratings
1 star 2 stars 3 stars 4 stars 5 stars
comments

The Hardest Button To Button Tab

   
Artist: The White Stripes
Song: The Hardest Button to Button
Album: Elephant


Intro:
Bass repeats: A

Then:

		A			C			A			C	
E-||-----------------------------------------------||
B-||-----------------------------------------------||
G-||---------------5-------------------------5-----||
D-||----7------------5------------7------------5---||
A-||------7------3-----3------------7------3-----3-||
E-||--5-----5-------------------5----5-------------||

[ Tab from: http://www.guitartabs.cc/tabs/w/white_stripes/the_hardest_button_to_button_tab_ver_3.html ]
		A			C			B			D	
E-||-----------------------------------------------||
B-||-----------------------------------------------||
G-||---------------5-------------4-----------7-----||
D-||----7------------5-------------4-----------7---||
A-||------7------3-----3-------2----2------5-----5-||
E-||--5-----5--------------------------------------||

Repeat for verse.

Pre-Chorus:
	  A----C----A----C----A----C----B----F#
E-||----------------------------------------||
B-||----------------------------------------||
G-||--2----5----2----5----2----5----4----3--||
D-||--2----5----2----5----2----5----4----3--||
A-||--0----3----0----3----0----3----2----1--||
E-||----------------------------------------||

"The Hardest Button to Button":
	  A----C----A----C----A----C
E-||----------------------------||
B-||----------------------------||
G-||--2----5----2----5----2----5||
D-||--2----5----2----5----2----5||
A-||--0----3----0----3----0----3||
E-||----------------------------||

Just keep alternating between 'A' and 'C'
That's basicly the whole song.  Listen for timing.  You can play all of this with open chords, but I've tabed it for power chords.  

-Reed Rothchild
Comments