White Stripes - The Hardest Button To Button Chords & Tabs

 

The Hardest Button To Button Chords & Tabs

White Stripes Chords & Tabs

Version: 10 Type: Tab 0 ratings
1 star 2 stars 3 stars 4 stars 5 stars
comments

The Hardest Button To Button Tab

   
The white stripes The hardest button to button

Intro
e ---------------------------------|
B ---------------------------------|
G ---------------------------------|
D ---------------------------------|
A ---------------------------------|
E -5-5-5-5-5-5-5-5-5-5-5-5-5-5-5-5-|

Riff (3x)
e ----------------------------------------|
B ----------------------------------------|
G ----------------------------------------|
D ---7--------10---------7--------10------|
A -----7---------10--------7---------10---|
E -5-----5--8-------8--5-----5--8-------8-|

e ------------------------------------------|
B ------------------------------------------|
G ------------------------------------------|
D ---7--------10---------9---------12-------|
A -----7---------10--------9----------12----|
E -5-----5--8-------8--7-----7--10-------10-|

e ----------------------------------------|
B ----------------------------------------|
G ----------------------------------------|
D ---7--------10---------7--------10------|
A -----7---------10--------7---------10---|
E -5-----5--8-------8--5-----5--8-------8-|

e ------------------------------------------|
B ------------------------------------------|
G ------------------------------------------|
D ---7--------10---------9---------12-------|
A -----7---------10--------9----------12----|
E -5-----5--8-------8--7-----7--10-------10-|

e ----------------------------------------|
B ----------------------------------------|
G ----------------------------------------|
D ---7--------10---------7--------10------|
A -----7---------10--------7---------10---|
E -5-----5--8-------8--5-----5--8-------8-|

e ------------------------------------------|
B ------------------------------------------|
G ------------------------------------------|
D ---7--------10---------9---------12-------|
A -----7---------10--------9----------12----|
E -5-----5--8-------8--7-----7--10-------10-|

e ----------------------------------------|
B ----------------------------------------|
G ----------------------------------------|
D ---7--------10---------7--------10------|
A -----7---------10--------7---------10---|
E -5-----5--8-------8--5-----5--8-------8-|

e --------------------------------------|
B --------------------------------------|
G --------------------------------------|
D ---7--------10---------9--------8-----|
A -----7---------10--------9--------8---|
E -5-----5--8-------8--7-----7--6-----6-|

Chorus
e ------------------------------------|
B ------------------------------------|
G ------------------------------------|
D -7---7---7--7--7---10--10--10-10-10-|
A -7---7---7-7--7---10--10--10-10-10-|
E -5---5--5-5--5---8---8---8-8--8--|

e ------------------------------------|
B ------------------------------------|
G ------------------------------------|
D -7---7---7--7--7---10-10--10-10-10-|
A -7---7---7-7--7---10-10--10-10-10-|
E -5---5--5-5--5---8---8---8-8--8--|

e ------------------------------------|
B ------------------------------------|
G ------------------------------------|
D -7---7---7--7--7---10-10-10-10-10---|
A -7---7---7-7--7---10-10-10-10-10---|
E -5---5--5-5--5---8--8--8-8--8----|

e -----------------------------------|
B -----------------------------------|
G -----------------------------------|
D -9---9---9--9--9---8---8---8--8--8-|
A -9---9---9--9--9---8---8---8--8--8-|
E -7---7---7--7--7---6---6---6--6--6-|

e ----------------------------------------------------|
B ----------------------------------------------------|
G ----------------------------------------------------|
D -7--7--7--7---10-10-10-10--7--7--7-7---10-10-10-10-|
A -7--7--7-7---10-10-10-10--7--7--7-7---10-10-10-10-|
E -5--5-5--5---8--8--8-8---5--5-5--5---8--8--8-8--|

e ---------------------------------------------------|
B ---------------------------------------------------|
G ---------------------------------------------------|
D -7--7--7--7---10-10-10-10-9--9--9--9---8--8--8--8-|
A -7--7--7-7---10-10-10-10-9--9--9--9---8--8--8--8-|
E -5--5-5--5---8--8--8-8---7--7-7--7---6--6--6--6-|

Riff 3
e ---------------------------------|
B ---------------------------------|
G ---------------------------------|
D ---------------------------------|
A ---------------------------------|
E -5-5-5-5-5-5-5-5-5-5-5-5-5-5-5-5-|
[ Tab from: http://www.guitartabs.cc/tabs/w/white_stripes/the_hardest_button_to_button_tab_ver_10.html ]
Riff
e ----------------------------------------|
B ----------------------------------------|
G ----------------------------------------|
D ---7--------10---------7--------10------|
A -----7---------10--------7---------10---|
E -5-----5--8-------8--5-----5--8-------8-|

e ------------------------------------------|
B ------------------------------------------|
G ------------------------------------------|
D ---7--------10---------9---------12-------|
A -----7---------10--------9----------12----|
E -5-----5--8-------8--7-----7--10-------10-|

e ----------------------------------------|
B ----------------------------------------|
G ----------------------------------------|
D ---7--------10---------7--------10------|
A -----7---------10--------7---------10---|
E -5-----5--8-------8--5-----5--8-------8-|

e --------------------------------------|
B --------------------------------------|
G --------------------------------------|
D ---7--------10---------9--------8-----|
A -----7---------10--------9--------8---|
E -5-----5--8-------8--7-----7--6-----6-|

Chorus
e ------------------------------------|
B ------------------------------------|
G ------------------------------------|
D -7---7---7--7--7---10--10--10-10-10-|
A -7---7---7-7--7---10--10--10-10-10-|
E -5---5--5-5--5---8---8---8-8--8--|

e ------------------------------------|
B ------------------------------------|
G ------------------------------------|
D -7---7---7--7--7---10-10--10-10-10-|
A -7---7---7-7--7---10-10--10-10-10-|
E -5---5--5-5--5---8---8---8-8--8--|

e ------------------------------------|
B ------------------------------------|
G ------------------------------------|
D -7---7---7--7--7---10-10-10-10-10---|
A -7---7---7-7--7---10-10-10-10-10---|
E -5---5--5-5--5---8--8--8-8--8----|

e -----------------------------------|
B -----------------------------------|
G -----------------------------------|
D -9---9---9--9--9---8---8---8--8--8-|
A -9---9---9--9--9---8---8---8--8--8-|
E -7---7---7--7--7---6---6---6--6--6-|

e ----------------------------------------------------|
B ----------------------------------------------------|
G ----------------------------------------------------|
D -7--7--7--7---10-10-10-10--7--7--7-7---10-10-10-10-|
A -7--7--7-7---10-10-10-10--7--7--7-7---10-10-10-10-|
E -5--5-5--5---8--8--8-8---5--5-5--5---8--8--8-8--|

e ----------------------------------------------------|
B ----------------------------------------------------|
G ----------------------------------------------------|
D -7--7--7--7---10-10-10-10--7--7--7-7---10-10-10-10-|
A -7--7--7-7---10-10-10-10--7--7--7-7---10-10-10-10-|
E -5--5-5--5---8--8--8-8---5--5-5--5---8--8--8-8--|

e ----------------------------------------------------|
B ----------------------------------------------------|
G ----------------------------------------------------|
D -7--7--7--7---10-10-10-10--7--7--7-7---10-10-10-10-|
A -7--7--7-7---10-10-10-10--7--7--7-7---10-10-10-10-|
E -5--5-5--5---8--8--8-8---5--5-5--5---8--8--8-8--|

e ---------------------------------------------------|
B ---------------------------------------------------|
G ---------------------------------------------------|
D -7--7--7--7---10-10-10-10-9--9--9--9---8--8--8--8-|
A -7--7--7-7---10-10-10-10-9--9--9--9---8--8--8--8-|
E -5--5-5--5---8--8--8-8---7--7-7--7---6--6--6--6-|

e ------------------------------------------------------|
B ------------------------------------------------------|
G ------------------------------------------------------|
D -7--7--7--7-----------------10-10-10-10---------------|
A -7--7--7--7-----------------10-10-10-10---------------|
E -5--5--5--5--5--5--5--5--5--8--8--8--8--8--8--8--8--8-|

e ------------------------------------------------------|
B ------------------------------------------------------|
G ------------------------------------------------------|
D -7--7--7--7-----------------10-10-10-10---------------|
A -7--7--7--7-----------------10-10-10-10---------------|
E -5--5--5--5--5--5--5--5--5--8--8--8--8--8--8--8--8--8-|

e ----------------------------------------------------|
B ----------------------------------------------------|
G ----------------------------------------------------|
D -7--7--7--7---10-10-10-10--7--7--7-7---10-10-10-10-|
A -7--7--7-7---10-10-10-10--7--7--7-7---10-10-10-10-|
E -5--5-5--5---8--8--8-8---5--5-5--5---8--8--8-8--|

End on
e ------------|
B ------------|
G ------------|
D -7--7--7--7-|
A -7--7--7--7-|
E -5-5-5-5-|
Comments