White Stripes - The Air Near My Fingers Chords & Tabs

 

The Air Near My Fingers Chords & Tabs

White Stripes Chords & Tabs

Version: 1 Type: Tab 0 ratings
1 star 2 stars 3 stars 4 stars 5 stars
comments

The Air Near My Fingers Tab

Tabbed by Zero

Intro: x4
--------------------------
--------------------------
------5--5--------7--7----
7--7--5--5--5--5--7--7----
7--7--3--3--5--5--5--5----
5--5--------3--3----------

verse: same as intro just strum softer. x4

After verse#1 x4
the palm mute part isn't in the song but 
I think it sounds good so play it if you like it.
----------------
----------------
----------------
7--7--7--5--5---
7--7--7--5--5---
5--5--5--3--3---
        pm*****

continued verse    x4
(same as first part of verse)

After continued verse
x4
------------
------------
------------
7--6--5-----
7--6--5-----
5--4--3-----
"I get nervous when she comes around" x4

------------------------------
------------------------------
------3--3--------------------
5--5--3--3--3--3--3--3--3-----
5--5--1--1--3--3--3--3--3-----
3--3--------1--1--5--5--1-----

After "I get nervous..."
x4
----------------------------
----------------------------
----------------------------
7--7--7--5--6--7--7--7------
7--7--7--5--6--7--7--7------
5--5--5--3--4--5--5--5------
[ Tab from: http://www.guitartabs.cc/tabs/w/white_stripes/the_air_near_my_fingers_tab.html ]
small solo (i am 95% sure this part is right but it sounds good)
x2
--0--2--0-----5--3--5-------------------------------
2----------2----------------------------------------
-----------------------0--2--4--2--0--7--7--7-------
----------------------------------------------------
----------------------------------------------------
----------------------------------------------------

verse#2 (same as last verse)x4 

After continued verse
x4
------------
------------
------------
7--6--5-----
7--6--5-----
5--4--3-----

"I get nervous when she comes around" x4

------------------------------
------------------- -----------
------3--3--------------------
5--5--3--3--3--3--3--3--3-----
5--5--1--1--3--3--3--3--3-----
3--3--------1--1--5--5--1-----

After "I get nervous..."
x4
----------------------------
----------------------------
----------------------------
7--7--7--5--6--7--7--7------
7--7--7--5--6--7--7--7------
5--5--5--3--4--5--5--5------

Larger solo after 4th time through it starts to fade away

--0--2--0-----5--3--5-------------------------------
2----------2----------------------------------------
-----------------------0--2--4--2--0--7--7--7-------
----------------------------------------------------
----------------------------------------------------
----------------------------------------------------
Comments