White Stripes - Seven Nation Army Chords & Tabs

 

Seven Nation Army Chords & Tabs

White Stripes Chords & Tabs

Version: 5 Type: Tab 0 ratings
1 star 2 stars 3 stars 4 stars 5 stars
comments

Seven Nation Army Tab

The White Stripes – Seven Nation Army

Tabbed by : nazeric

Standard tuning

Main tune
|----------------------------|
|----------------------------|
|----------------------------|
|----------------------------|
|----------------------------|
|-12---12—-15—-12—-10—-8---7-|

|------------------------------|
|------------------------------|
|------------------------------|
|------------------------------|
|------------------------------|
|-12---12--15--12--10-8-10-8-7-|

Post Chorus
|-----|
|-----|
|-1---|
|-2-7-|
|-2-7-|
|---5-|

Chorus
|----------------|
|-9-9-12-9-7-5-4-|
|-9-9-12-9-7-5-4-|
|-7-7-10-7-5-3-2-|
|----------------|
[ Tab from: http://www.guitartabs.cc/tabs/w/white_stripes/seven_nation_army_tab_ver_5.html ]
|--------------------|
|-9-9-12-9-7-5-7-5-4-|
|-9-9-12-9-7-5-7-5-4-|
|-7-7-10-7-5-3-5-3-2-|
|--------------------|

Solo
|-12---12—-15—-12—-10—-8---7----12---12--15--12--10-8-10-8-7-|
|------------------------------------------------------------|
|------------------------------------------------------------|
|------------------------------------------------------------|
|------------------------------------------------------------|
|------------------------------------------------------------|

End on
|---|
|---|
|-9-|
|-9-|
|-7-|
|---|
That’s about it
I’m not sure it’s 100% correct but hey, u can leave your corrections right?
Comments? naz_eric@yahoo.com
Comments