White Stripes - Seven Nation Army Chords & Tabs

 

Seven Nation Army Chords & Tabs

White Stripes Chords & Tabs

Version: 4 Type: Tab 0 ratings
1 star 2 stars 3 stars 4 stars 5 stars
comments

Seven Nation Army Tab

   
-------------------------------------------------------------------------------
			     SEVEN NATION ARMY
                           By: The White Stripes                              
-------------------------------------------------------------------------------

Tabbed by:Jared Klienstien
Email:jarbear9@yahoo.com

Tuning:E A D G B E (standard)
 Intro/Verse:
e|---------------------------------------------------------------------------|
B|---------------------------------------------------------------------------|
G|---------------------------------------------------------------------------|
D|-----------------------------------repeat through verse--------------------|
A|-7-7-10-7---------7-7-10-7-------------------------------------------------|
E|----------10-8-7-----------10-8-7------------------------------------------|
  Pre-chorus: 
e|-------------------------------------------------------------|
B|-------------------------------------------------------------|
G|-------------------------------------------------------------|
D|---5---7-----------------------------------------------------|
A|---5---7-----------------------------------------------------|
E|---3---5-----------------------------------------------------|
[ Tab from: http://www.guitartabs.cc/tabs/w/white_stripes/seven_nation_army_tab_ver_4.html ]
  Chorus: (strum) E E G E D C B /\ E E G E D C D C E (play as many times as
needed throughout chorus)
  
 Post-chorus (same as pre)
e|-----------------------------------------------------------------|
B|-----------------------------------------------------------------|
G|-----------------------------------------------------------------|
D|---5------7------------------------------------------------------|
A|---5------7------------------------------------------------------|
E|---3------5------------------------------------------------------|

 Back to into/verse

 Go to Post-chorus

 Chorus is playing, while a solo is also playing.
 Solo:
e|---------------------------------------------------------------------------|
B|---------------------------------------------------------------------------|
G|-9-9-12-9-9-12-14----------------------------------------------------------|
D|-----------------------------2x--------------------------------------------|
A|---------------------------------------------------------------------------|
E|---------------------------------------------------------------------------|

e|-12-12-15-12-15-15-14/\-12-12-15-17-15-15-17-15-14-------------------------|
B|---------------------------------------------------------------------------|
G|---------------------------------------------------------------------------|
D|---------------------------------------------------------------------------|
A|---------------------------------------------------------------------------|
E|---------------------------------------------------------------------------|
  (Listen to song for correct timing!!)
e|-12-12-14-12-17-15/\-12-12-14-12-14-14-12----------------------------------|
B|------------------------------------------13-12----------------------------|
G|---------------------------------------------------------------------------|
D|---------------------------------------------------------------------------|
A|---------------------------------------------------------------------------|
E|---------------------------------------------------------------------------|
  Back to post chorus.
  Then Intro/Verse.
  One Last Chorus.
  End on "E"

===============================================================================
Comments