White Stripes - Seven Nation Army Chords & Tabs

 

Seven Nation Army Chords & Tabs

White Stripes Chords & Tabs

Version: 14 Type: Tab 0 ratings
1 star 2 stars 3 stars 4 stars 5 stars
comments

Seven Nation Army Tab

   
#----------------------------------PLEASE NOTE--------------------------------#
#This file is the author's own work and represents their interpretation of the#
#song. You may only use this file for private study, scholarship, or research.#
#-----------------------------------------------------------------------------#
#-- File created with Instab - http://www.pconline.com/~smcarey/instab.html --#
#-----------------------------------------------------------------------------#

Author/Artist: The White Stripes
Title: Seven Nation Army
Album: Elephant
Tuning: Standard (E A D G B E)
Transcribed by: Gutherall VenomYell
Email: gutherallvenomyell@hotmail.com

Heya, folks. I figured out this tab myself, and so this
isn't according to a magazine or an interview or
anything. A few notes, first.

1: The intro is done on guitar with an octave pedal.
2: The power chords work best on the right pickup.
3: The solo works best in between the left and right
pickups.
4: In the solo, there are two parts that say "bend"
with no number before it. That means you bend
the string on the fret after "release".
5: x means palm-mute (in this case, only make it
slightly palm-muted), / and \ mean slide up and
down, respectively, ^ means harmonic, and b and
r mean bend and release.

Cheers!


Main Riff (guitar w/ octave pedal; vocals):
e|-----------------------------------------------------------------------------
B|-----------------------------------------------------------------------------
G|-----------------------------------------------------------------------------
D|-----------------------------------------------------------------------------
A|-7--7-10-7-5-----------------------------------------------------------------
E|-------------8-7-------------------------------------------------------------
                                        
Chorus (guitar w/ distortion; vocals):
|------------------------------------------------------------------------------
|------------------------------------------------------------------------------
|------------------------------------------------------------------------------
|-7-7-7-7-7-7-7-7-9-9-9-9-9-9-9-9----------------------------------------------
|-7-7-7-7-7-7-7-7-9-9-9-9-9-9-9-9----------------------------------------------
|-5-5-5-5-5-5-5-5-7-7-7-7-7-7-7-7----------------------------------------------
 x x x x x x x x x x x x x x x x                                              
[ Tab from: http://www.guitartabs.cc/tabs/w/white_stripes/seven_nation_army_tab_ver_14.html ]
Bridge (guitar w/ distortion; no vocals)
|------------------------------------------------------------------------------
|------------------------------------------------------------------------------
|-9--9-12-9-7--------9--9-12-9-7-----------------------------------------------
|-9--9-12-9-7-10--9--9--9-12-9-7-10/12\10-9------------------------------------
|-7--7-10-7-5-10--9--7--7-10-7-5-10/12\10-9------------------------------------
|--------------8--7---------------8/10\-8-7-----------------------------------

Solo: (guitar w/ distortion, neck humbucker; no vocals): 
|------------------------------------------------------------------------------
|------------------------------------------------------------------------------
|-9--9-9-9-9/12-11----------9/12-14-12-12/14\12-11-----9--9-12-12-9-12\11------
|------------------------12^------------------------12^------------------------
|------------------------12^------------------------12^------------------------
|------------------------12^------------------------12^------------------------
                                                                              
------------------------------------------------------------------------------
------------------------------------------------------------------------------
----9/12-14-12-12b14r12-11----------------------------------------------------
-12^--------------------------------------------------------------------------
-12^--------------------------------------------------------------------------
-12^--------------------------------------------------------------------------
                                                                              

-/12--12-15-15-12-r15-14-----12--12-15/17\15-15b17r15-14----------------------
------------------------------------------------------------------------------
------------------------------------------------------------------------------
------------------------------------------------------------------------------
------------------------------------------------------------------------------
------------------------------------------------------------------------------
                                                                              

-12--12/14\12-12-b18r15-14--/12--12/15\12-12-15\12\9-8----5v----7v------------
------------------------------------------------------------------------------
------------------------------------------------------------------------------
------------------------------------------------------------------------------
------------------------------------------------------------------------------
------------------------------------------------------------------------------
Comments