White Stripes - Seven Nation Army In Drop B Chords & Tabs

 

Seven Nation Army In Drop B Chords & Tabs

White Stripes Chords & Tabs

Version: 1 Type: Tab 4 ratings
1 star 2 stars 3 stars 4 stars 5 stars
comments

Seven Nation Army In Drop B Tab

   
#----------------------------------PLEASE NOTE---------------------------------#
#This file is the author's own work and represents their interpretation of the #
#song. You may only use this file for private study, scholarship, or research. #
#------------------------------------------------------------------------------#
#------------Created with Taborama Tab Creator-----www.taborama.com------------#
#------------------------------------------------------------------------------#

Title: Seven Nation Army
Artist: The White Stripes
Album: Elephant

Instrument: Guitar

Tabbed by: John Wika Haakseth (johnwika@hotmail.com)

Tuning: Dropped B (B A D G B E)

Noticed that nobodys tabbed this right, so i thought i'd give it a try... 
You have to use either a seven-string or a dropped-B. Here's the droppet-B. 
You'll figure it out. The solos, you can find other places.
Comments/Rants: Just mail me.

Intro/Verse

E|-------------------------------------------------------------------||
B|-------------------------------------------------------------------||
G|-------------------------------------------------------------------||
D|-------------------------------------------------------------------||
A|-------------------------------------------------------------------||
B|---5-------5--8----5---3------1-------0-let-ring-------------------||


Pre-Chorus
[ Tab from: http://www.guitartabs.cc/tabs/w/white_stripes/seven_nation_army_in_drop_b_tab.html ]
     G          A
E|-------------------------------------------------------------------||
B|-------------------------------------------------------------------||
G|-------------------------------------------------------------------||
D|-------------------------------------------------------------------||
A|---55555555---7-7-7-7-7-7-7-7--------------------------------------||
B|---88888888--1010101010101010--------------------------------------||

or

     G          A
E|-------------------------------------------------------------------||
B|-------------------------------------------------------------------||
G|-------------------------------------------------------------------||
D|-------------------------------------------------------------------||
A|---1010101010101010--1212121212121212------------------------------||
B|----8-8-8-8-8-8-8-8--1010101010101010------------------------------||



Chorus

    E        G    E    D    C    B
E|-------------------------------------------------------------------||
B|-------------------------------------------------------------------||
G|--9----9--12----9----7----5----4-----------------------------------||
D|--9----9--12----9----7----5----4-----------------------------------||
A|--7----7--10----7----5----3----2-----------------------------------||
B|-------------------------------------------------------------------||

    E        G    E    D    C  D  C  B
E|-------------------------------------------------------------------||
B|-------------------------------------------------------------------||
G|--9----9--12----9----7----5--7--5--4-------------------------------||
D|--9----9--12----9----7----5--7--5--4-------------------------------||
A|--7----7--10----7----5----3--5--3--2-------------------------------||
B|-------------------------------------------------------------------||

That's it..
Comments