White Stripes - Seven Nation Army Chords & Tabs

 

Seven Nation Army Chords & Tabs

White Stripes Chords & Tabs

Version: 9 Type: Bass Tab 0 ratings
1 star 2 stars 3 stars 4 stars 5 stars
comments

Seven Nation Army Bass Tab

Seven Nation Army  [version 9] 
by The White Stripes

Tab by Steven Cary

standard tuning
____________________________________________________
start
____________________________________________________


G|-----------------------------------------|
D|-----------------------------------------|
A|------------3-2--------------------------|
E|-2--2-5-2-0------------------------------|

G|-----------------------------------------|
D|-----------------------------------------|
A|------------3-2--------------------------|
E|-2--2-5-2-0------------------------------|

G|-----------------------------------------|
D|-----------------------------------------|
A|------------3-2--------------------------|
E|-2--2-5-2-0------------------------------|

G|-----------------------------------------|
D|-----------------------------------------|
A|------------3-2--------------------------|
E|-2--2-5-2-0------------------------------|


G|-----------------------------------------|
D|-----------------------------------------|
A|------------3-2--------------------------|
E|-2--2-5-2-0------------------------------|


G|-----------------------------------------|
D|-----------------------------------------|
A|------------3-2--------------------------|
E|-2--2-5-2-0------------------------------|

G|-----------------------------------------|
D|-----------------------------------------|
A|------------3-2--------------------------|
E|-2--2-5-2-0------------------------------|

G|-----------------------------------------|
D|-----------------------------------------|
A|------------3-2--------------------------|
E|-2--2-5-2-0------------------------------|

G|-----------------------------------------|
D|-----------------------------------------|
A|------------3-2--------------------------|
E|-2--2-5-2-0------------------------------|

G|-----------------------------------------|
D|-----------------------------------------|
A|------------3-2--------------------------|
E|-2--2-5-2-0------------------------------|

G|-----------------------------------------|
D|-----------------------------------------|
A|------------3-2--------------------------|
E|-2--2-5-2-0------------------------------|

G|-----------------------------------------|
D|-----------------------------------------|
A|------------3-2--------------------------|
E|-2--2-5-2-0------------------------------|

G|-----------------------------------------|
D|-----------------------------------------|
A|-----------------------------------------|
E|-0-0-0-0-0-0-0-2-2-2-2-2-2-2-4-----------|

G|-----------------------------------------|
D|-----------------------------------------|
A|------------------4-2-0-0-0-0-2-2-2-2-4--|
E|-4--4-7-4-2-0-2-0----------------------4~|

G|-----------------------------------------|
D|-----------------------------------------|
A|------------3-2--------------------------|
E|-2--2-5-2-0------------------------------|

G|-----------------------------------------|
D|-----------------------------------------|
A|------------3---3--2---------------------|
E|-2--2-5-2-0---0--------------------------|

G|-----------------------------------------|
D|-----------------------------------------|
A|------------3-2--------------------------|
E|-2--2-5-2-0------------------------------|

G|-----------------------------------------|
D|-----------------------------------------|
A|------------3---3--2---------------------|
E|-2--2-5-2-0---0--------------------------|


G|-----------------------------------------|
D|-----------------------------------------|
A|------------3-2--------------------------|
E|-2--2-5-2-0------------------------------|

G|-----------------------------------------|
D|-----------------------------------------|
A|------------3-2--------------------------|
E|-2--2-5-2-0------------------------------|

G|-----------------------------------------|
D|-----------------------------------------|
A|------------3-2--------------------------|
E|-2--2-5-2-0------------------------------|

G|-----------------------------------------|
D|-----------------------------------------|
A|------------3-2--------------------------|
E|-2--2-5-2-0------------------------------|


G|-----------------------------------------|
D|-----------------------------------------|
A|------------3-2--------------------------|
E|-2--2-5-2-0------------------------------|


G|-----------------------------------------|
D|-----------------------------------------|
A|------------3-2--------------------------|
E|-2--2-5-2-0------------------------------|
[ Tab from: http://www.guitartabs.cc/tabs/w/white_stripes/seven_nation_army_btab_ver_9.html ]
G|-----------------------------------------|
D|-----------------------------------------|
A|------------3-2--------------------------|
E|-2--2-5-2-0------------------------------|

G|-----------------------------------------|
D|-----------------------------------------|
A|------------3-2--------------------------|
E|-2--2-5-2-0------------------------------|

G|-----------------------------------------|
D|-----------------------------------------|
A|------------3-2--------------------------|
E|-2--2-5-2-0------------------------------|

G|-----------------------------------------|
D|-----------------------------------------|
A|------------3-2--------------------------|
E|-2--2-5-2-0------------------------------|

G|-----------------------------------------|
D|-----------------------------------------|
A|------------3-2--------------------------|
E|-2--2-5-2-0------------------------------|

G|-----------------------------------------|
D|-----------------------------------------|
A|------------3-2--------------------------|
E|-2--2-5-2-0------------------------------|

G|-----------------------------------------|
D|-----------------------------------------|
A|-----------------------------------------|
E|-0-0-0-0-0-0-0-2-2-2-2-2-2-2-4-----------|

G|-----------------------------------------|
D|-----------------------------------------|
A|------------------4-2-0-0-0-0-2-2-2-2-4--|
E|-4--4-7-4-2-0-2-0----------------------4~|

G|-----------------------------------------|
D|-----------------------------------------|
A|------------3-2--------------------------|
E|-2--2-5-2-0------------------------------|

G|-----------------------------------------|
D|-----------------------------------------|
A|------------3---3--2---------------------|
E|-2--2-5-2-0---0--------------------------|

G|-----------------------------------------|
D|-----------------------------------------|
A|------------3-2--------------------------|
E|-2--2-5-2-0------------------------------|

G|-----------------------------------------|
D|-----------------------------------------|
A|------------3---3--2---------------------|
E|-2--2-5-2-0---0--------------------------|

G|-----------------------------------------|
D|-----------------------------------------|
A|------------3-2--------------------------|
E|-2--2-5-2-0------------------------------|

G|-----------------------------------------|
D|-----------------------------------------|
A|------------3-2--------------------------|
E|-2--2-5-2-0------------------------------|

G|-----------------------------------------|
D|-----------------------------------------|
A|------------3-2--------------------------|
E|-2--2-5-2-0------------------------------|

G|-----------------------------------------|
D|-----------------------------------------|
A|------------3-2--------------------------|
E|-2--2-5-2-0------------------------------|

G|-----------------------------------------|
D|-----------------------------------------|
A|------------3-2--------------------------|
E|-2--2-5-2-0------------------------------|

G|-----------------------------------------|
D|-----------------------------------------|
A|------------3-2--------------------------|
E|-2--2-5-2-0------------------------------|

G|-----------------------------------------|
D|-----------------------------------------|
A|------------3-2--------------------------|
E|-2--2-5-2-0------------------------------|

G|-----------------------------------------|
D|-----------------------------------------|
A|------------3-2--------------------------|
E|-2--2-5-2-0------------------------------|

G|-----------------------------------------|
D|-----------------------------------------|
A|------------3-2--------------------------|
E|-2--2-5-2-0------------------------------|

G|-----------------------------------------|
D|-----------------------------------------|
A|------------3-2--------------------------|
E|-2--2-5-2-0------------------------------|

G|-----------------------------------------|
D|-----------------------------------------|
A|------------3-2--------------------------|
E|-2--2-5-2-0------------------------------|

G|-----------------------------------------|
D|-----------------------------------------|
A|------------3-2--------------------------|
E|-2--2-5-2-0------------------------------|

G|-----------------------------------------|
D|-----------------------------------------|
A|-----------------------------------------|
E|-0-0-0-0-0-0-0-2-2-2-2-2-2-2-4-----------|

G|-----------------------------------------|
D|-----------------------------------------|
A|------------------4-2-0-0-0-0-2-2-2-2-4--|
E|-4--4-7-4-2-0-2-0---------------------4~~4|
_____________________________________________________
end
_____________________________________________________

Email me at Darkschneider55@yahoo.com with comments and other things like that.
Comments