White Stripes - Seven Nation Army Chords & Tabs

 

Seven Nation Army Chords & Tabs

White Stripes Chords & Tabs

Version: 7 Type: Bass Tab 0 ratings
1 star 2 stars 3 stars 4 stars 5 stars
comments

Seven Nation Army Bass Tab

Artist: White Stripes
Song: Seven Nation Army
Album: Elephant

Tuning: Standard


I finally figured out one version that I think is it. It sounds good to me.
If you have any comments or need help IM me  AIM:Ozzman3388  or Sk8rD2002.

KEY|
/-slide
~-Ring
P- pull off


Intro
G|-------------------|------------------------------------------------------
D|-------------------|------------------------------------------------------
A|-------------------|------------------------------------------------------
E|-12-12-15-12-10-8-7|---3-3-3-3-3-3-3-3---5-5-5-5-5-5-5-5------------------
  |__Repeat 12 X's__|  then play this ^       


Verse
G|----------------------------------------------------|---------------------
D|----------------------------------------------------|---------------------
A|----------------------------------------------------|---------------------
E|-12-12/15/12/10/8/7-SLIDE---12-12-15-12-10-8-10-8-7-|-33333333-55555555---
   |__________Repeat both of these 2 X's____________| then play ^that
[ Tab from: http://www.guitartabs.cc/tabs/w/white_stripes/seven_nation_army_btab_ver_7.html ]
Solo
G|--------------------------------------------------------------------------
D|-------------10-9-9-7----12--10-12-10-10-12-9-7--------------10---10-9-7--
A|-12-12-12-12----------12-------------------------12-12-12-12---12---------
E|--------------------------------------------------------------------------

Solo Continued...
G|------------------------------12-12-12-15-12-12-15-14-14-10-12-12-15-17-15
D|-------10-12-10-10-12-10-9-7----------------------------------------------
A|-12-12--------------------------------------------------------------------
E|--------------------------------------------------------------------------

Solo Continued......
G|-15-17-15-14-14-10--12-12-12-14-12-12-17-14-10-12-12-14-12-12-12----------
D|--------------------------------------------------------------------------
A|--------------------------------------------------------------------------
E|--------------------------------------------------------------------------

Solo End...
G|-----------------------------------|
D|-----------------------------------|
A|-----------------------------------|
E|-3-3-3-3-3-3-3-3---5-5-5-5-5-5-5-5-|

Outro
G|-----------------------------------|
D|-----------------------------------|
A|-----------------------------------|
E|--12~/-P-0-------------------------|

~ let is ring for 5 seconds and then slide all the way down to 1st fret and pull
off so that only the E string will be heard.... thats it.


SONG FORMATION!!!
Intro
Verse
Intro
Solo
Solo End
Intro
Outro
Comments