White Stripes - Screw Driver Chords & Tabs

 

Screw Driver Chords & Tabs

White Stripes Chords & Tabs

Version: 1 Type: Tab 0 ratings
1 star 2 stars 3 stars 4 stars 5 stars
comments

Screw Driver Tab

i didnot work on the timing f this,but im sur youcan work it out for 
your selves, it is a great song.

E--7--7--7--5--5--5--------------------------------------
A--5--5--5--3--3--3---------------------------------------
D-------------------------7----------------------------------  X2
G-----------------------5---5--5--5--5--7b(8)7p5--------
B-----------------------5---5--7--5--7--7b(8)7p5--------
e------------------------------------------------------------

E-7--7--7--5--5--5----------------
A-5--5--5--3--3--3----------------
D------------------------------------
G----------------------5-------------
B----------------------5-------------
e-------------------------------------

E--7--5--7--5--7--5--7--5--7--5------
A--5--3--5--3--5--3--5--3--5--3-------
D-----------------------------------------
G-----------------------------------------
B-----------------------------------------
e-----------------------------------------


E--7--7--7--5--5--5--------------------------------------
A--5--5--5--3--3--3---------------------------------------
D-------------------------7----------------------------------  X2
G-----------------------5---5--5--5--5--7b(8)7p5--------
B-----------------------5---5--7--5--7--7b(8)7p5--------
e------------------------------------------------------------

E-7--7--7--5--5--5----------------
A-5--5--5--3--3--3----------------
D------------------------------------
G----------------------5-------------
B----------------------5-------------
e-------------------------------------


E--7--5--7--5--7--5--7--5--7--5--7----7-7-7--7-7-7--7-7-7---------------
A--5--3--5--3--5--3--5--3--5--3--5---5-5-5--5-5-5--5-5-5----------------
D-------------------------------------------------------------------------
G-----------------------------------------------------------7b(8)-------
B-----------------------------------------------------------7b(8)-------
e--------------------------------------------------------------------------
[ Tab from: http://www.guitartabs.cc/tabs/w/white_stripes/screw_driver_tab.html ]
E-7-7-7-5-5-5--7-7-7-5-5-5----------------------------------
A-5-5-5-3-3-3--5-5-5-3-3-3----------------------------------
D-----------------------------------7-----------------------------
G--------------------------------5----5-7-5-7-7b(8)7p5---------
B--------------------------------5----5-5-5-5-7b(8)7p5----------
e---------------------------------------------------------------------


E-7--7--7--5--5--5----------------
A-5--5--5--3--3--3----------------
D------------------------------------
G----------------------5-------------
B----------------------5-------------
e-------------------------------------

E--7--5--7--5--7--5--7--5--7--5--7--5----------------------------------------
A--5--3--5--3--5--3--5--3--5--3--5--3-----------------------------
D-----------------------------------------------------
G---------------------------------------------------
B--------------------------------------------------
e------------------------------------------------------

E--7------------------------------------------------
A--5-LOTS OF TIMES-------------------------------------------------
D-----------------------------------------------------
G---------------------------------------------------
B--------------------------------------------------
e------------------------------------------------------


E-7-7-7-5-5-5--7-7-7-5-5-5----------------------------------
A-5-5-5-3-3-3--5-5-5-3-3-3----------------------------------
D-----------------------------------7-----------------------------
G--------------------------------5----5-7-5-7-7b(8)7p5---------
B--------------------------------5----5-5-5-5-7b(8)7p5----------
e---------------------------------------------------------------------

E--7--7--7--7--7--7--7---------------------------------
A--5--5--5--5--5--5--5--------------------------------
D-----------------------------------------------
G--------------------------------------------------
B-----------------------------------------------------
e---------------------------------------------------
Comments