White Stripes - Same Boy Youve Always Known Chords & Tabs

 

Same Boy Youve Always Known Chords & Tabs

White Stripes Chords & Tabs

Version: 2 Type: Tab 0 ratings
1 star 2 stars 3 stars 4 stars 5 stars
comments

Same Boy Youve Always Known Tab

   
Artist: White Stripes
Song: Same boy you've always known
Tabber: Samuel Scheideman
Comments: This has the solo
E-mail addy: klayfeather@hotmail.com

()<-- optional note

Intro:
e---------------------------------------
B---------------------------------------
G---------------------------------------
Dó7/9-\7-------------7/9-\7-------------
A----------5/7-\5-------------5/7-\5----
E------------------------(5)------------


Verse:
      A                    D                          A               D
E--5--5--5--5--5--5---5--5--5--5--5--5---5--5--5--5--5--5---5--5--5--5--5--
B--5--5--5--5--5--7---7--7--7--7--5--5---5--5--5--5--5--7---7--7--7--8--7--
G--6--6--6--6--5--7---7--7--7--7--5--6---6--6--6--6--5--7---7--7--7--7--7--
D--7--7--7--7--5--7---7--7--7--7--5--7---7--7--7--7--5--7---7--7--7--7--7--
A--7--7--7--7--5--5---5--5--5--5--5--7---7--7--7--7--5--5---5--5--5--5--5--
E--5--5--5--5--5---------------------5---5--5--5--5--5--5------------------


[ Tab from: http://www.guitartabs.cc/tabs/w/white_stripes/same_boy_youve_always_known_tab_ver_2.html ]
Chorus:
     C                  G                  A             
e--3--3--3--3---3--3--3--3---5--5--5--5--5--5-5--5--5--5-------------
B--5--5--5--5---3--3--3--3---5--5--5--5--5--5-5--5--5--5-------------
G--5--5--5--5---4--4--4--4---6--6--6--6--6--5h6--6--6--6--------------
D--5--5--5--5---5--5--5--5---7--7--7--7--7--5h7--7--7--7--------------
A--3--3--3--3---5--5--5--5---7--7--7--7--7--5h7--7--7--7--------------
E---------------3--3--3--3---5--5--5--5--5--5h5--5--5--5--------------
Chorus: continued
      C            G
e--3--3--3--3---3--3--------------------------------
B--5--5--5--5---3--3--------------------------------
G--5--5--5--5---4--4--------------------------------
D--5--5--5--5---5--5--------------------------------
A--3--3--3--3---5--5--------------------------------
E---------------3--3--------------------------------

Bridge:
                   Hope you know a strong man......
E------------------------------------------------------------
B------------------------------------------------------------
G-----------------------6-6-6-6-5-6-6-6-6--------------------
D-7-7-6-5-5-5-5-5-5-5-5-7-7-7-7-5-7-7-7-7-6-5-5-5-5-5-5-5-5--
A-7-7-6-5-5-5-5-5-5-5-5-7-7-7-7-5-7-7-7-7-6-5-5-5-5-5-5-5-5--
E-5-5-4-3-3-3-3-3-3-3-3-5-5-5-5-5-5-5-5-5-4-3-3-3-3-3-3-3-3--

Bridge: continued
E------------------------------5--5--5--5---
B------------------------------7--7--7--7---
G------------------------------7--7--7--7---
D--6--5--5--5--5--5--5--5---5--7--7--7--7---
A--6--5--5--5--5--5--5--5---5--5--5--5--5---
E--4--3--3--3--3--3--3--3---3---------------


Solo: As near as I can figure out
e--------------------------------------------
B--------------------------------------------
G-----7-------7------7-----------------------
Dó7/9----7/9-----9-9---9--7--5---------------
A-------------------------------7------------
E--------------------------------------------

With all this you should be able to figure out everything else,
Its just the chorus after the solo if I'm not mistaken. =)
Comments